Stolica.ru Реклама на Куличках     

Аккорды песен:
A B C D E F G H I J K L M N O P Q R S T U V W X Y Z
АБВГДЕЖЗИКЛМНОПРСТУФХЦЧШЩЭЮЯ





Тексты песен :     A B C D E F G H I J K L M N O P Q R S T U V W X Y Z #

ПОЛНЫЙ СПИСОК ПЕСЕН ГРУППЫ




-->



АРИЯ   

Зверь
-----
tabbed by Vladimir Gelfand ("Little Prince")


Tempo: moderately slow (106 bpm)

(0:02 - 0:20)

VERSE 1:
      Ya zdes',ya prishel k tebe,                  prishyol vopreki sud'be.
E|-------------------------------------------|-------------------------------------------|
H|-------------------------------------------|-------------------------------------------|
G|-------------------------------------------|-------0----0----0h2-----------------------|
D|-------2----2----2p0---4----4--------------|-----------------------4----4--------------|
A|-------------------------------------------|-------------------------------------------|
E|--0----------------------------------------|--3----------------------------------------|

       S nebes lyotsya lunnyy svet.                 Ya zver', mne pokoya net.
E|-------------------------------------------|-------------------------------------------|
H|-------------------------------------------|-------------------------------------------|
G|-------------------------------------------|-------0----0----0h2-----------------------|
D|-------2----2----2p0---4----4--------------|-----------------------4----4--------------|
A|-------------------------------------------|-------------------------------------------|
E|--0----------------------------------------|--3----------------------------------------|

       Kradus' v temnote kak ten',                 v dushe  proklinaya  den'
E|-------------------------------------------|-------------------------------------------|
H|-------------------------------------------|-------------------------------------------|
G|-------2----2---2p0---5p0---2--------------|----------------------0h2---4--------------|
D|-------------------------------------------|-------2----2---0h2------------------------|
A|--0----------------------------------------|-------------------------------------------|
E|-------------------------------------------|--0----------------------------------------|

         Kogda ya vsego lish' prizrak     v    se - roy      tol - pe.
E|-------------------------------------------|-------------------------------------------|
H|-------------------------------------------|-------------------------------------------|
G|-------2----2---2p0---5p0------------------|-------------------------------------------|
D|-------------------------------------------|--5-------------------4--------------------|
A|--0----------------------------------------|--3-------------------2--------------------|
E|-------------------------------------------|-------------------------------------------|

(0:20 - 0:38) VERSE 2

(0:38 - 0:57)

CHORUS:

VoiceE|--------------------------------------------------------------------------------------|
     H|--------------------------------------------------------------------------------------|
     G|--------------------------------------------------------------------------------------|
     D|---9---9-9--9------9-------------------------------------------------------9-9----9-9-|
     A|----------------------7-------------------9--9---9--9-9--10---------------------------|
     E|- Ty  nevinnyy     angel,                 angel podnebesya.              V etoy zhizni|
      |                  |                                 |                                 |
Gtr. E|-- 2/4 measure  --|---------------------------------|---------------------------------|
     H|------------------|---------------------------------|---------------------------------|
     G|------------------|-------------------------R-------|-------------------------R-------|
     D|------------------|-------------------------E-------|-------------------------E-------|
     A|------------------|-3-3-3-3-3-3-5-5-5-5-5-5-S-------|-7-7-7-7-7-7-5-5-5-5-5-5-S-------|
     E|------------------|-------------------------T-------|-------------------------T-------|
 
VoiceE|--------------------------------------------------------------------|
     H|--------------------------------------------------------------------|
     G|--------------------------------------------------------------------|
     D|----9-------------------------------------------------9--9-9----9---|
     A|--------7--------10---9--5-----7------------------------------------|
     E|- strannoy       ty  ne  mo - ya.                    Za toboy  ten' |
      |                                  |                                 |
Gtr. E|----------------------------------|---------------------------------|
     H|----------------------------------|---------------------------------|
     G|----------------------------------|---------------------------------|
     D|------------------5---4-------2---|-(2)-----------------------------|
     A|--3-3-3-3-3-3-5-----------5---2---|-(2)-----------------------------|
     E|------------------------------0---|-(0)-----------------------------|
 
VoiceE|--------------------------------------------------------------------|
     H|--------------------------------------------------------------------|
     G|--------------------------------------------------------------------|
     D|---9----------------------------------------------------9--9-9----9-|
     A|------7-----------------9--9---9-9---9-10---------------------------|
     E| zverya,               vy povsyudu vmeste.              A teper' po-|
      |                                  |                                 |
Gtr. E|----------------------------------|---------------------------------|
     H|----------------------------------|---------------------------------|
     G|--------------------------R-------|-------------------------R-------|
     D|--------------------------E-------|-------------------------E-------|
     A|--3-3-3-3-3-3-5-5-5-5-5-5-S-------|-7-7-7-7-7-7-5-5-5-5-5-5-S-------|
     E|--------------------------T-------|-------------------------T-------|
 
VoiceE|--------------------------------------------------------------------|
     H|--------------------------------------------------------------------|
     G|--------------------------------------------------------------------|
     D|--9-----------------------------------------------------------------|
     A|--------7--------10---9---5----7------------------------------------|
     E| ver' mne   -   zver' e - tot ya.    -------------------------------|
      |                                  |                                 |
Gtr. E|----------------------------------|---------------------------------|
     H|----------------------------------|---------------------------------|
     G|----------------------------------|---------------------------------|
     D|------------------5---4-------2---|-(2)-----------------------------|
     A|--3-3-3-3-3-3-5-----------5---2---|-(2)-----------------------------|
     E|------------------------------0---|-(0)-----------------------------|

(0:58 - 1:16) VERSE 3

(1:16 - 1:35) CHORUS

Measure: 3/4 (only in Riff 1)

(1:35 - 1:49)

RIFF 1: (Play 4 times)

Gtr.1E||--- 3/4 measure ---------------------|-- 3/4 measure ----------------------|| 
Gtr.2H||-------------------------------------|-------------------------------------||
     G||-------------------------------------|------------------------------11-----||
     D||-------9-----9--10--9--7----7--------|-------9-----9--10--9--7----7--------||
     A||-7-----------------------10---10--9--|-7-----------------------10----------||
     E||-0-----------------------------------|-0-----------------------------------||

Measure: normal (4/4)

(1:49 - 2:06)

RIFF 2:

Gtr.1E|-------------------------------------------------|-------------------------------------------------|
     H|---------------------------------------------11-bend-12---....---release-11~~~~~~~~~~~-------------|
     G|------------/6-----7-----------------------------|-------------------------------------------------|
     D|-------------------------9-----8-----------------|-------------------------------------------------|
     A|-------------------------------------9-----------|-------------------------------------------------|
     E|-------------------------------------------------|-------------------------------------------------|
      |                                                 |                                                 |
Gtr.2E|-------------------------------------------------|-------------------------------------------------|
     H|-------------------------------------------------|-------------------------------------------------|
     G|-------------------------------------------------|-------------------------------------------------|
     D|-------------------------------------------------|-------------------------------------------------|
     A|-4-----------4-----------4-----------5-----2-----|-4-----------4-----------4-----------3-h4--------|
     E|-2-----------2-----------2-----------2-----2-----|-2-----------2-----------2--------2--------0--0--|
 
Gtr.1E|---------------------------------------------10--|-(10)--------------------------------------------|
     H|---------------------------------------------11-bend-12---....--release-11~~~~~~~~~~~--------------|
     G|------------/6-----7-----------------------------|-------------------------------------------------|
     D|-------------------------9-----8-----------------|-------------------------------------------------|
     A|-------------------------------------9-----------|-------------------------------------------------|
     E|-------------------------------------------------|-------------------------------------------------|
      |                                                 |                                                 |
Gtr.2E|-------------------------------------------------|-------------------------------------------------|
     H|-------------------------------------------------|-------------------------------------------------|
     G|-------------------------------------------------|-------------------------------------------------|
     D|-------------------------------------------------|-------------------------------------------------|
     A|-4-----------4-----------4-----------5-----2-----|-4-----------4-----------4-----------3-h4--------|
     E|-2-----------2-----------2-----------2-----2-----|-2-----------2-----------2--------2--------0--0--|
 
Gtr.1E|-------------------------------------------------|---------10--------------------------------------|
     H|---------------------------------------------11-bend-12----------release-11~~~~~~~~~~~-------------|
     G|------------/6-----7-----------------------------|-------------------------------------------------|
     D|-------------------------9-----8-----------------|-------------------------------------------------|
     A|-------------------------------------9-----------|-------------------------------------------------|
     E|-------------------------------------------------|-------------------------------------------------|
      |                                                 |                                                 |
Gtr.2E|-------------------------------------------------|-------------------------------------------------|
     H|-------------------------------------------------|-------------------------------------------------|
     G|-------------------------------------------------|-------------------------------------------------|
     D|-------------------------------------------------|-------------------------------------------------|
     A|-4-----------4-----------4-----------5-----2-----|-4-----------4-----------4-----------3-h4--------|
     E|-2-----------2-----------2-----------2-----2-----|-2-----------2-----------2--------2--------0--0--|
 
Gtr.1E|-------------------------------------------------|-------------------------------------------------|
     H|-------------------------------------------------|-------10----------------------------------------|
     G|-------------------------9-----8~~~~~~~~---------|-9-----------9-----8-----------------------------|
     D|------------/6-----7-----------------------7-----|-------------------------------------------------|
     A|-------------------------------------------------|-------------------------------------------------|
     E|-------------------------------------------------|-------------------------------------------------|
      |                                                 |                                                 |
Gtr.2E|-------------------------------------------------|-------------------------------------------------|
     H|-------------------------------------------------|-------------------------------------------------|
     G|-------------------------------------------------|-------------------------------------------------|
     D|-------------------------------------------------|-------------------------------------------------|
     A|-4-----------4-----------4-----------5-----2-----|-4-----------4-----------4-----------3-h4--------|
     E|-2-----------2-----------2-----------2-----2-----|-2-----------2-----------2--------2--------0--0--|

Measure: 3/4  (when repeat Riff 1)

(2:06 - 2:19) Repeat RIFF 1 ( 4 times )

Measure: normal (4/4)

(2:20 - 2:37)

RIFF 3: ( play 2 times )

Gtr.1E||-------------------------------------------------|-------------------------------------------------|
     H||-10b12rel10--10b12rel10--10b12rel10--------------|-------------------------------------------------|
     G||-------------------------------------11p9------9-|-9b11rel9----9b11rel9----9b11rel9----------------|
     D||-------------------------------------------11----|-------------------------------------11p9------9-|
     A||-------------------------------------------------|-------------------------------------------12----|
     E||-------------------------------------------------|-------------------------------------------------|
      ||                                                 |                                                 |
Gtr.2E||-------------------------------------------------|-------------------------------------------------|
     H||-------------------------------------------------|-------------------------------------------------|
     G||-------------------------------------------------|-------------------------------------------------|
     D||-------------------------------------------------|-------------------------------------------------|
     A||-4-----------4-----------4-----------5-----2-----|-4-----------4-----------4-----------3-h4--------|
     E||-2-----------2-----------2-----------2-----2-----|-2-----------2-----------2--------2--------0--0--|
 
Gtr.1E|--------------------------------------------------|-------------------------------------------------||
     H|--------------------------------------------------|-------------------------------------------------||
     G|--------------------------------------------------|-------------------9~~~~~~~~~~~~~~~--------------||
     D|--9b11rel9----9b11rel9----9b11rel9--------9-------|-------------------------------------------------||
     A|--------------------------------------12-----12bend14rel12------9-h12-------------------------------||
     E|--------------------------------------------------|-------------------------------------------------||
      |                                                  |                                                 ||
Gtr.2E|--------------------------------------------------|-------------------------------------------------||
     H|--------------------------------------------------|-------------------------------------------------||
     G|--------------------------------------------------|-------------------------------------------------||
     D|--------------------------------------------------|-------------------------------------------------||
     A|--4-----------4-----------4-----------5-----2-----|-4-----------4-----------4-----------3-h4--------||
     E|--2-----------2-----------2-----------2-----2-----|-2-----------2-----------2--------2--------0--0--||

(2:37 - 2:57)

MAIN SOLO:

Gtr.1E|-------------------------------------------------|-10p7-10-----------7------10bend12----------------|
     H|------7-10p7------7-10p7------7-10p7------7-10p7-|--------7-10p7-10---10p7-------------------------|
     G|-9b11--------9b11--------9b11--------9b11--------|-------------------------------------------------|
     D|-------------------------------------------------|-------------------------------------------------|
     A|-------------------------------------------------|-------------------------------------------------|
     E|-------------------------------------------------|-------------------------------------------------|
      |                                                 |                                                 |
Gtr.2E|-------------------------------------------------|-------------------------------------------------|
     H|-------------------------------------------------|-------------------------------------------------|
     G|-------------------------------------------------|-------------------------------------------------|
     D|--9----------------------7-----------------------|-5-----------------------------------7-----------|
     A|--9----------------------7-----------------------|-5-----------------------------------7-----------|
     E|--7----------------------5-----------------------|-3-----------------------------------5-----------|
 
Gtr.1E|-7h9h10p9p7--------------------------------------|-------------------------------------------------|
     H|-----------10-7-10-8-7---------------------------|-------------------------------------------------|
     G|-----------------------9-6h7h9p7p6---6-----------|-------------------------------------------------|
     D|-----------------------------------9----9--7--5--|-4h5h7p5p4---4-----------------------------------|
     A|-------------------------------------------------|-----------7----7--5--4--------4-----4h5p4h5p4h5p|
     E|-------------------------------------------------|-------------------------5------------- trill ---|
      |                                                 |                                                 |
Gtr.2E|-------------------------------------------------|-------------------------------------------------|
     H|-------------------------------------------------|-------------------------------------------------|
     G|-------------------------------------------------|-------------------------------------------------|
     D|--9----------------------7-----------------------|-5-----------------------------------7-----------|
     A|--9----------------------7-----------------------|-5-----------------------------------7-----------|
     E|--7----------------------5-----------------------|-3-----------------------------------5-----------|
 
Gtr.1E|-------------------------------------------------|-------------------------------------------------|
     H|-------------------------------------------------|-------------------15-------15-12----12-14-15p14-|
     G|-------------------------------------------------|-------------14-12----14-12-------14-------------|
     D|-------------------------------------9--7--10--9-|-12-10-14-12-------------------------------------|
     A|p4-----5--4--7--5--9--7--10--9--7--9-------------|-------------------------------------------------|
     E|----7--------------------------------------------|-------------------------------------------------|
      |                                                 |                                                 |
Gtr.2E|-------------------------------------------------|-------------------------------------------------|
     H|-------------------------------------------------|-------------------------------------------------|
     G|-------------------------------------------------|-------------------------------------------------|
     D|--9----------------------7-----------------------|-5-----------------------------------7-----------|
     A|--9----------------------7-----------------------|-5-----------------------------------7-----------|
     E|--7----------------------5-----------------------|-3-----------------------------------5-----------|
 
Gtr.1E|----------------------------------------------17-|-19--17--16--15--14------------------------------|
     H|--19~~~~~~~~~~~----------17~~~~~~~~~~~~----------|---------------------17--16--15--14--------------|
     G|-------------------------------------------------|-------------------------------------17----16----|
     D|-------------------------------------------------|-------------------------------------------------|
     A|-------------------------------------------------|-------------------------------------------------|
     E|-------------------------------------------------|-------------------------------------------------|
      |                                                 |                                                 |
Gtr.2E|-------------------------------------------------|-------------------------------------------------|
     H|-------------------------------------------------|-------------------------------------------------|
     G|-------------------------------------------------|-------------------------------------------------|
     D|--9----------------------7-----------------------|-5-----------------------------------------------|
     A|--9----------------------7-----------------------|-5-----------------------------------------------|
     E|--7----------------------5-----------------------|-3-----------------------------------------------|
 
Gtr.1E|-------------------------------------------------|
     H|-------------------------------------------------|
     G|--14~~~~~~~~~~~~~~~~~~~--------------------------|
     D|-------------------------------------------------|
     A|-------------------------------------------------|
     E|-------------------------------------------------|
      |                                                 |
Gtr.2E|-------------------------------------------------|
     H|-------------------------------------------------|
     G|-------------------------------------------------|
     D|--7----------------------------------------------|
     A|--7----------------------------------------------|
     E|--5----------------------------------------------|

(2:57 - 3:16) VERSE 4

(3:16 - 3:40) CHORUS

 






                       


Copyright © Музыкальный Портал на Куличках 1999-2007      music@kulichki.com


    Stolica.ru    
Реклама в Интернет