Stolica.ru Реклама на Куличках     

Аккорды песен:
A B C D E F G H I J K L M N O P Q R S T U V W X Y Z
АБВГДЕЖЗИКЛМНОПРСТУФХЦЧШЩЭЮЯ





Тексты песен :     A B C D E F G H I J K L M N O P Q R S T U V W X Y Z #

ПОЛНЫЙ СПИСОК ПЕСЕН ГРУППЫ




-->



АРИЯ   

Герой асфальта
--------------
tabbed by Vladimir Gelfand ("Little Prince")


Tempo: moderately fast (141 bpm)

INTRO:

  (0:01 - 0:14)

   RIFF 1 (play 2 times):
    E||---------------------------------|---------------------------------|
    H||---------------------------------|---------------------------------|
    G||---------------------------------|---------------------------------|
    D||-------------------------7-------|---------------------------------|
    A||-9-------10------9-------5-------|-8-------------------------------|
    E||-7-------7-------7---------------|-6---6-6-6---6-6-6---6-6-6---6-6-|
                                              . . .   . . .   . . .   . .
    E|----------------------------------|---------------------------------||
    H|----------------------------------|---------------------------------||
    G|----------------------------------|---------------------------------||
    D|--------------------------7-------|-5-------------------------------||
    A|--9-------10------9-------5-------|-3-----------4-------------------||
    E|--7-------7-------7---------------|-------------2-------------------||

  (0:15 - 0:28)

   RIFF 2 (play 2 times):
Gtr.E||---------------------------------|---------------------------------|
    H||---------------------------------|---------------------------------|
    G||---------------------------------|---------------------------------|
    D||---------------------------------|-----------------7-------8-------|
    A||-9-------10------9-------8-------|-9-------7-------7-------8-------|
    E||-----7-------7-------7-------7---|-----7-------7---5-------6-------|
     ||     .       .       .       .   |     .       .   >       >       |
BassG||---------------------------------|---------------------------------|
    D||---------------------------------|---------------------------------|
    A||---------------------------------|---------------------------------|
    E||-7---7---------------------------|-5---5-----------5-------6-------|
 
Gtr.E|----------------------------------|---------------------------------||
    H|----------------------------------|---------------------------------||
    G|----------------------------------|---------------------------------||
    D|----------------------------------|-----------------5-------7-------||
    A|--9-------10------9-------8-------|-9-------7-------5-------7-------||
    E|------7-------7-------7-------7---|-----7-------7---3-------5-------||
     |      .       .       .       .   |     .       .   >       >       ||
BassG|----------------------------------|---------------------------------||
    D|----------------------------------|---------------------------------||
    A|----------------------------------|---------------------------------||
    E|--7---7---------------------------|-5---5-----------3-------5-------||

  (0:29 - 0:38)

   RIFF 3:
    E|----------------------------------|---------------------------------|
    H|----------------------------------|---------------------------------|
    G|--7p0-----6---0---9p0-----7---6---|-7p0-----6---0---9p0-----7p0-----|
    D|----------.---.-----------.---.---|---------.---.-------------------|
    A|----------------------------------|---------------------------------|
    E|----------------------------------|---------------------------------|


    E|----------------------------------|---------------------------------|
    H|----------------------------------|---------------------------------|
    G|--9p0-----0---0---6p0-----0---0---|-4p0-----0---0---3p0-----0---0---|
    D|----------.---.-----------.---.---|---------.---.-----------.---.---|
    A|----------------------------------|---------------------------------|
    E|----------------------------------|---------------------------------|


    E|----------------------------------|---------------------------------|
    H|----------------------------------|---------------------------------|
    G|--9p0-----0---0---6p0-----0---0---|-3p0-----------------------------|
    D|----------.---.-----------.---.---|---------4---5-------------------|
    A|----------------------------------|---------5---6-------------------|
    E|----------------------------------|---------------------------------|

  (0:39 - 0:42)

   RIFF 4:
Gtr.1E|---------------------------------|---------------------------------|
Gtr.2H|---------------------------------|---------------------------------|
     G|-9-------------------------------|---------------------------------|
     D|-9-------------------------------|-----------------7---------------|
     A|-7---7-7-7---7-7-7---7-7-7---7-7-|-7---7---9---10-----10---9---10--|
     E|---------------------------------|---------------------------------|

(0:42 - 1:09)

VERSE 1:
                Tvoy   dom       stal  dlya  tebya  tyur'moy      
Gtr.1E|---------------------------------|---------------------------------|
     H|---------------------------------|---------------------------------|
     G|---------------------------------|---------------------------------|
     D|---------------------------------|---------------------------------|
     A|-7---7-7-7---7-7-7---7-7-7---7-7-|-7---7-7-7---7-7-7---7-7-7---3-3-|
     E|---------------------------------|---------------------------------|
      |                                 |                                 |
Gtr.2E|---------------------------------|---------------------------------|
     H|---------------------------------|---------------------------------|
     G|---------------------------------|-----------------9-------7-------|
     D|---------------------------------|-----------------9-------7-------|
     A|---------------------------------|-----------------7-------5-------|
     E|---------------------------------|---------------------------------|
 
                Dlya   teh,     kto  v  dome,    ty  chuzhoy       
Gtr.1E|---------------------------------|---------------------------------|
     H|---------------------------------|---------------------------------|
     G|---------------------------------|---------------------------------|
     D|---------------------------------|---------------------------------|
     A|-3---3-3-3---3-3-3---3-3-3---3-3-|-3---3-3-3---3-3-3---3-3-3---5-5-|
     E|---------------------------------|---------------------------------|
      |                                 |                                 |
Gtr.2E|---------------------------------|---------------------------------|
     H|---------------------------------|---------------------------------|
     G|-5-------------------------------|-----------------5-------5-------|
     D|-5-------------------------------|-----------------5-------5-------|
     A|-3-------------------------------|-----------------3-------3-------|
     E|---------------------------------|---------------------------------|
 
                  Ty   byl          na - iven     i    zhdal   pe - re -
Gtr.1E|---------------------------------|---------------------------------|
     H|---------------------------------|---------------------------------|
     G|---------------------------------|---------------------------------|
     D|---------------------------------|---------------------------------|
     A|-5---5-5-5---5-5-5---5-5-5---5-5-|-5---5-5-5---5-5-5---5-5-5---5-5-|
     E|---------------------------------|---------------------------------|
      |                                 |                                 |
Gtr.2E|---------------------------------|---------------------------------|
     H|---------------------------------|-----------------8-------7-------|
     G|-7-------------------------------|---------7-------7-------7-------|
     D|-7-------------------------------|---------7-------7-------7-------|
     A|-5-------------------------------|---------5-----------------------|
     E|---------------------------------|---------------------------------|
 
      - men.     
Gtr.1E|---------------------------------|---------------------------------|
Gtr.2H|---------------------------------|---------------------------------|
     G|-9-------------------------------|---------------------------------|
     D|-9-------------------------------|-----------------7---------------|
     A|-7---7-7-7---7-7-7---7-7-7---7-7-|-7---7---9---10-----10---9---10--|
     E|---------------------------------|---------------------------------|
 
                Ty   zhdal,       chto  drug  tebya  poymyot,
Gtr.1E|---------------------------------|---------------------------------|
     H|---------------------------------|---------------------------------|
     G|---------------------------------|---------------------------------|
     D|---------------------------------|---------------------------------|
     A|-7---7-7-7---7-7-7---7-7-7---7-7-|-7---7-7-7---7-7-7---7-7-7---3-3-|
     E|---------------------------------|---------------------------------|
      |                                 |                                 |
Gtr.2E|---------------------------------|---------------------------------|
     H|---------------------------------|---------------------------------|
     G|---------------------------------|-----------------9-------7-------|
     D|---------------------------------|-----------------9-------7-------|
     A|---------------------------------|-----------------7-------5-------|
     E|---------------------------------|---------------------------------|
 
                poy - myot          i  skazhet:"Zhmi vperyod!",          
Gtr.1E|---------------------------------|---------------------------------|
     H|---------------------------------|---------------------------------|
     G|---------------------------------|---------------------------------|
     D|---------------------------------|---------------------------------|
     A|-3---3-3-3---3-3-3---3-3-3---3-3-|-3---3-3-3---3-3-3---3-3-3---5-5-|
     E|---------------------------------|---------------------------------|
      |                                 |                                 |
Gtr.2E|---------------------------------|---------------------------------|
     H|---------------------------------|---------------------------------|
     G|-5-------------------------------|-----------------5-------5-------|
     D|-5-------------------------------|-----------------5-------5-------|
     A|-3-------------------------------|-----------------3-------3-------|
     E|---------------------------------|---------------------------------|
 
                 no   drug      bluzh - dal     sredi   sobst - vennyh 
Gtr.1E|---------------------------------|---------------------------------|
     H|---------------------------------|---------------------------------|
     G|---------------------------------|---------------------------------|
     D|---------------------------------|---------------------------------|
     A|-5---5-5-5---5-5-5---5-5-5---5-5-|-5---5-5-5---5-5-5---5-5-5---5-5-|
     E|---------------------------------|---------------------------------|
      |                                 |                                 |
Gtr.2E|---------------------------------|---------------------------------|
     H|---------------------------------|---------------------------------|
     G|-7-------------------------------|---------7-------5-------7-------|
     D|-7-------------------------------|---------7-------5-------7-------|
     A|-5-------------------------------|---------5-------3-------5-------|
     E|---------------------------------|---------------------------------|
 
      sten.     
Gtr.1E|---------------------------------|---------------------------------|
     H|---------------------------------|---------------------------------|
     G|---------------------------------|---------------------------------|
     D|---------------------------------|---------------------------------|
     A|-7---7-7-7---7-7-7---7-7-7---7-7-|-7---7-7-7---7-7-7\--------------|
     E|---------------------------------|---------------------------------|
      |                                 |                                 |
Gtr.2E|---------------------------------|---------------------------------|
     H|---------------------------------|---------------------------------|
     G|---------------------------------|-----------------9---------------|
     D|---------------------------------|-----------------9---------------|
     A|---------------------------------|-----------------7---------------|
     E|---------------------------------|---------------------------------|
(1:09 - 1:26)
CHORUS:
                Gorel    asfal't              ot  solntza  i  ot zvyozd 
Gtr. E|---------------------------------|--------------------------------|
     H|---------------------------------|--------------------------------|
     G|--------------9---7h9p7-----------|-------------9---7h9p7-----------|
     D|------7---10-----------9---------|-7---9---10-----------9---------|
     A|--0-----------------------8--10--|-------------------------10--7--|
     E|---------------------------------|--------------------------------|
      |                                 |                                |
Bass G|---------------------------------|--------------------------------|
     D|---------------------------------|--------------------------------|
     A|---------------------------------|--------------------------------|
     E|--5---5-----------3--------------|-1---1-----------3--------------|
 
               Gorel    asfal't            pod   shum   kolyos
Gtr. E|---------------------------------|--------------------------------|
     H|---------------------------------|--------------------------------|
     G|--------------9---7h9p7-----------|-------------9---9------10------|
     D|------7---10-----------9---------|-7---9---10---------9-------9---|
     A|--0-----------------------8--10--|--------------------------------|
     E|---------------------------------|--------------------------------|
      |                                 |                                |
Bass G|---------------------------------|--------------------------------|
     D|---------------------------------|--------------------------------|
     A|---------------------------------|--------------------------------|
     E|--5---5-----------3--------------|-1---1-----------3--------------|
 
             Gorel    asfal't               ty   chuvstvoval   teplo  
Gtr. E|---------------------------------|--------------------------------|
     H|---------------------------------|--------------------------------|
     G|--------------9---7h9p7-----------|-------------9---7h9p7-----------|
     D|------7---10-----------9---------|-7---9---10-----------9---------|
     A|--0-----------------------8--10--|-------------------------10--7--|
     E|---------------------------------|--------------------------------|
      |                                 |                                |
Bass G|---------------------------------|--------------------------------|
     D|----------2---------------0------|-------------------------0------|
     A|------3-------3-------2-------2--|-----0---3---0-------2-------2--|
     E|--5---------------3--------------|-1---------------3--------------|
 
             Gorel    asfal't              snegam       nazlo - oooooooo
Gtr. E|---------------------------------|--------------------------------|
     H|---------------------------------|--------------------------------|
     G|--------------9---7h9p7-----------|-------------9---9------10------|
     D|------7---10-----------9---------|-7---9---10---------9-------9---|
     A|--0-----------------------8--10--|--------------------------------|
     E|---------------------------------|--------------------------------|
      |                                 |                                |
Bass G|---------------------------------|--------------------------------|
     D|----------2---------------0------|-------------------------0------|
     A|------3-------3-------2-------2--|-----0---3---0-------2-------2--|
     E|--5---------------3--------------|-1---------------3--------------|
 
        ooooooooooooooooooooo! 1.,2. -->                          <-----
Gtr. E|---------------------------------|-------------------------------|
Bass H|---------------------------------|-------------------------------|
     G|---------------------------------|-(A5)--------------------------|
     D|-7-------------------------------|-------------------------------|
     A|-7-------------------------------|-------------------------------|
     E|-5---5---5---5---5---5---5---5---|-5---5---5---5-5-5---5-5-5-5-5-|

(1:26 - 1:29) Repeat RIFF 4

(1:29 - 1:57) VERSE 2

(1:57 - 2:14) CHORUS

(2:14 - 2:51) Repeat RIFF1, RIFF2, RIFF3

(2:52 - 3:57)

SOLO:

PART A:
Gtr.1E|---/17~~~~~~~~~~~~~~~~~~~~~~~~~~~~---------------|-17----15----14----------------------------------|
     H|-sl----------------------------------------------|-------------------17----16~~~~~~~~~-------------|
     G|-------------------------------------------------|-------------------------------------------------|
     D|-------------------------------------------------|-------------------------------------------------|
     A|-------------------------------------------------|-------------------------------------------------|
     E|-------------------------------------------------|-------------------------------------------------|
      |                                                 |                                                 |
Gtr.2E|-------------------------------------------------|-------------------------------------------------|
     H|-------------------------------------------------|-------------------------------------------------|
     G|-------------------------------------------------|-------------------------------------------------|
     D|-------------------------------------10----------|-------------------------------------7-----------|
     A|-------------------------------------10----------|-------------------------------------7-----------|
     E|-0-----0--0--0-----0--0--0-----0--0--8-----------|-0-----0--0--0-----0--0--0-----0--0--5-----------|
 
Gtr.1E|---/17-19----20p19p17----------------------------|-------------------------------------------------|
     H|----------------------20p16h19p16-----\13p12p10----|-------10h12h13p12p10h12h13~~~~~~~~~~~~~~~~~~----|
     G|---------------------------------- sl --------12-|-------------------------------------------------|
     D|-------------------------------------------------|-13----------------------------------------------|
     A|-------------------------------------------------|-------------------------------------------------|
     E|-------------------------------------------------|-------------------------------------------------|
      |                                                 |                                                 |
Gtr.2E|-------------------------------------------------|-------------------------------------------------|
     H|-------------------------------------------------|-------------------------------------------------|
     G|-------------------------------------------------|-------------------------------------------------|
     D|-------------------------------------9-----------|-------------------------------------9-----------|
     A|-------------------------------------9-----------|-------------------------------------9-----------|
     E|-0-----0--0--0-----0--0--0-----0--0--7-----------|-0-----0--0--0-----0--0--0-----0--0--7-----------|
 
Gtr.1E|-------------------------------------------------|-------------------------------------------------|
     H|-------------------------------------------------|-------------------------------------------------|
     G|-------------------------------------------------|-------------------------------------------------|
     D|----7-9-10-10p7----------------------------------|-------------------------------------------------|
     A|--9------------9p7p6---7---9---6-----------------|-------------------------------------------------|
     E|-------------------------------------8-----8p7p5-|-7-----------------------------------------------|
      |                                                 |                                                 |
Gtr.2E|-------------------------------------------------|-------------------------------------------------|
     H|-------------------------------------------------|-------------------------------------------------|
     G|-------------------------------------------------|-------------------------------------------------|
     D|-------------------------------------10----------|-------------------------------------7-----------|
     A|-------------------------------------10----------|-------------------------------------7-----------|
     E|-0-----0--0--0-----0--0--0-----0--0--8-----------|-0-----0--0--0-----0--0--0-----0--0--5-----------|
 
Gtr.1E|-14----15----17p14---14----17----20----19--20--17--|-20------20------20------20----------------------|
     H|------------------16-------------------------------|-----20------19------17------16~~~~~~~~~~~~~~----|
     G|-------------------------------------------------|-------------------------------------------------|
     D|-------------------------------------------------|-------------------------------------------------|
     A|-------------------------------------------------|-------------------------------------------------|
     E|-------------------------------------------------|-------------------------------------------------|
      |                                                 |                                                 |
Gtr.2E|-------------------------------------------------|-------------------------------------------------|
     H|-------------------------------------------------|-------------------------------------------------|
     G|-------------------------------------------------|-------------------------------------------------|
     D|-------------------------------------9-----------|-------------------------------------9-----------|
     A|-------------------------------------9-----------|-------------------------------------9-----------|
     E|-0-----0--0--0-----0--0--0-----0--0--7-----------|-0-----0--0--0-----0--0--0-----0--0--7-----------|
 
Gtr.1E|-------------------------------------------------|-------------------------------------------------|
     H|-16p13-------------------------------------------|-------------------------------------------------|
     G|-------14----14p11-------11p8--------------------|-------------------------------------8-h9-p8-h9-p|
     D|----------13----------10------10-----10p7--10----|----------------------------9h10p9---------------|
     A|-------------------12-------------9--------------|-------6--9--9b10--6----/9-----------------------|
     E|-------------------------------------------------|-7--8--------------------------------------------|
      |                                                 |                                                 |
Gtr.2E|-------------------------------------------------|-------------------------------------------------|
     H|-------------------------------------------------|-------------------------------------------------|
     G|-------------------------------------------------|-------------------------------------------------|
     D|-------------------------------------10----------|-------------------------------------7-----------|
     A|-------------------------------------10----------|-------------------------------------7-----------|
     E|-0-----0--0--0-----0--0--0-----0--0--8-----------|-0-----0--0--0-----0--0--0-----0--0--5-----------|
 
Gtr.1E|-------------------------------------------------|-/11h12------14b15~~~~~~~~~~~~~~~~~~~~~~~~~~~~~~-|
     H|------------------------/12-13p12p10-------------|-------------------------------------------------|
     G|-p8~~~~~~~~~~~~~~~~~-----------------\8----------|-------------------------------------------------|
     D|-------------------------------------------------|-------------------------------------------------|
     A|-------------------------------------------------|-------------------------------------------------|
     E|-------------------------------------------------|-------------------------------------------------|
      |                                                 |                                                 |
Gtr.2E|-------------------------------------------------|-------------------------------------------------|
     H|-------------------------------------------------|-------------------------------------------------|
     G|-------------------------------------------------|-------------------------------------------------|
     D|-------------------------------------9-----------|-------------------------------------9-----------|
     A|-------------------------------------9-----------|-------------------------------------9-----------|
     E|-0-----0--0--0-----0--0--0-----0--0--7-----------|-0-----0--0--0-----0--0--0-----0--0--7-----------|
 
                                                                                                 T      T
Gtr.1E|-------------------------------------------14-17-|-17p14---14----17----20~~~~~~~~~~~~~~~----20p14h17-20p|
     H|----------------------------------------16-------|-------16------------------------------------------|
     G|-----------------------------14--16--17----------|-------------------------------------------------|
     D|-------------------------16----------------------|-------------------------------------------------|
     A|-------------14--15--17--------------------------|-------------------------------------------------|
     E|-13----16----------------------------------------|-------------------------------------------------|
      |                                                 |                                                 |
Gtr.2E|-------------------------------------------------|-------------------------------------------------|
     H|-------------------------------------------------|-------------------------------------------------|
     G|-------------------------------------------------|-------------------------------------------------|
     D|-------------------------------------10----------|-------------------------------------7-----------|
     A|-------------------------------------10----------|-------------------------------------7-----------|
     E|-0-----0--0--0-----0--0--0-----0--0--8-----------|-0-----0--0--0-----0--0--0-----0--0--5-----------|
 
          T
Gtr.1E|p17-20p17p14-17p14-------T----T---------T----T--------T----|-------------------------------------------------|
     H|------------16p13h16-19p16p13-19p16p13\10h13-16p13p10-16p13p10\7h10-13p10p7-|-------------------------------------------------|
     G|----------------------------------------------------|-9----- ??????? ---------------------------------|
     D|----------------------------------------------------|-------------------------------------------------|
     A|----------------------------------------------------|-------------------------------------------------|
     E|----------------------------------------------------|-------------------------------------------------|
      |                                                    |                                                 |
Gtr.2E|---------------------------------------------------|--------------------------------------------------|
     H|---------------------------------------------------|--------------------------------------------------|
     G|---------------------------------------------------|--------------------------------------------------|
     D|--------------------------------------9------------|--------------------------------------9-----------|
     A|--------------------------------------9------------|--------------------------------------9-----------|
     E|--0-----0--0--0-----0--0--0-----0--0--7------------|--0-----0--0--0-----0--0--0-----0--0--7-----------|
PART B:
Gtr.1E|-------------------------------------------------|-------------------------------------------------|
     H|-5-----0-----7-----0-----8-----0-----10-----7-bend8-release-7----\\\\\\\\-{ press tremolo bar }----|
     G|-------------------------------------------------|-------------------------------------------------|
     D|-------------------------------------------------|-------------------------------------------------|
     A|-------------------------------------------------|-------------------------------------------------|
     E|-------------------------------------------------|-------------------------------------------------|
      |                                                 |                                                 |
Gtr.2E|-------------------------------------------------|-------------------------------------------------|
     H|-------------------------------------------------|-------------------------------------------------|
     G|-9-----------------------------------------------|-7-----------------------------------------------|
     D|-9-----------------------------------------------|-7-----------------------------------------------|
     A|-7-----------------------------------------------|-5-----------------------------------------------|
     E|-------------------------------------------------|-------------------------------------------------|
 
Gtr.1E|--- N.H. ----------------------------------------|-7--8--7-----------------------------------------|
     H|-<7>---------/\/\\\\\  articulate  --------------|---------10--8--10--8--7-------------------------|
     G|---------------------- w/tremolo bar ------------|-------------------------9--7--------------------|
     D|-------------------------------------------------|------------------------------10--9--7-----------|
     A|-------------------------------------------------|---------------------------------------10--9--10-|
     E|-------------------------------------------------|-------------------------------------------------|
      |                                                 |                                                 |
Gtr.2E|-------------------------------------------------|-------------------------------------------------|
     H|-------------------------------------------------|-------------------------------------------------|
     G|-5-----------------------------------------------|-4-----------------------------------------------|
     D|-5-----------------------------------------------|-4-----------------------------------------------|
     A|-3-----------------------------------------------|-2-----------------------------------------------|
     E|-------------------------------------------------|-------------------------------------------------|
 
Gtr.1E|-------------------------------------------------|-------------------------------------------------|
     H|-------------------------------------------------|-------------------------------------------------|
     G|-------------------------------------------------|-------------7-----------------------------------|
     D|---------------------------------------------7---|------------------10-----9-----7-----------------|
     A|-7-----------------------------------7---10------|-------------------------------------10----9-----|
     E|-------------------------------------------------|-10----8-----------------------------------------|
      |                                                 |                                                 |
Gtr.2E|-------------------------------------------------|-------------------------------------------------|
     H|-------------------------------------------------|-------------------------------------------------|
     G|-9-----------------------------------------------|-7-----------------------------------------------|
     D|-9-----------------------------------------------|-7-----------------------------------------------|
     A|-7-----------------------------------------------|-5-----------------------------------------------|
     E|-------------------------------------------------|-------------------------------------------------|
 
Gtr.1E|-------------------------------------------------|-------------------------------------------------|
     H|-------------------------------------------------|-------------------------------------------------|
     G|-------------------------------------------------|-------------------------------------------------|
     D|------------10-----9-----7-----------------------|-------- T --- T --- T ----- T ------9~~~~-------|
     A|------------------------------10-----9-----7-----|-6---9p6-14p9p6-14p9p6-12p6h9--12p9p6---------------|
     E|-8-----7-----------------------------------------|-------------------------------------------------|
      |                                                 |                                                 |
Gtr.2E|-------------------------------------------------|-------------------------------------------------|
     H|-------------------------------------------------|-------------------------------------------------|
     G|-5-----------------------------------------------|-4-----------------------------------------------|
     D|-5-----------------------------------------------|-4-----------------------------------------------|
     A|-3-----------------------------------------------|-2-----------------------------------------------|
     E|-------------------------------------------------|-------------------------------------------------|
 
Gtr.1E|-------------------------------------------------|-------------------------------------------------|
     H|-8--7--------8--7--------8--7--------8--7--------|-10--7-------10--7-------10--7-------10--7-------|
     G|-------9--7--------9--7--------9--7--------9--7--|--------9--7--------9--7--------9--7--------9--7-|
     D|-------------------------------------------------|-------------------------------------------------|
     A|-------------------------------------------------|-------------------------------------------------|
     E|-------------------------------------------------|-------------------------------------------------|
      |                                                 |                                                 |
Gtr.2E|-------------------------------------------------|-------------------------------------------------|
     H|-------------------------------------------------|-------------------------------------------------|
     G|-9-----------------------------------------------|-7-----------------------------------------------|
     D|-9-----------------------------------------------|-7-----------------------------------------------|
     A|-7-----------------------------------------------|-5-----------------------------------------------|
     E|-------------------------------------------------|-------------------------------------------------|
 
Gtr.1E|-7-----------7-----------7-----------------------|-------------------------------------------------|
     H|-------7--8-----8--7-------10--8-----------------|----------------------10-12h13p10h13----13-------|
     G|----9-----------------9----------11--9-----------|--------------9-11-12----------------12----11/12-|
     D|---------------------------------------12--10--9-|-----9-10-12-------------------------------------|
     A|-------------------------------------------------|-12----------------------------------------------|
     E|-------------------------------------------------|-------------------------------------------------|
      |                                                 |                                                 |
Gtr.2E|-------------------------------------------------|-------------------------------------------------|
     H|-------------------------------------------------|-------------------------------------------------|
     G|-5-----------------------------------------------|-4-----------------------------------------------|
     D|-5-----------------------------------------------|-4-----------------------------------------------|
     A|-3-----------------------------------------------|-2-----------------------------------------------|
     E|-------------------------------------------------|-------------------------------------------------|
 
Gtr.1E|-------15p12----15p12----15p12-15-14-------12----|-------17p14----17p14----17p14-17-15-------14----|
     H|-12----------12-------12-------------------------|-15----------15-------15----------15-------------|
     G|-------------------------------------------------|-------------------------------------------------|
     D|-------------------------------------------------|-------------------------------------------------|
     A|-------------------------------------------------|-------------------------------------------------|
     E|-------------------------------------------------|-------------------------------------------------|
      |                                                 |                                                 |
Gtr.2E|-------------------------------------------------|-------------------------------------------------|
     H|-------------------------------------------------|-------------------------------------------------|
     G|-9-----------------------------------------------|-7-----------------------------------------------|
     D|-9-----------------------------------------------|-7-----------------------------------------------|
     A|-7-----------------------------------------------|-5-----------------------------------------------|
     E|-------------------------------------------------|-------------------------------------------------|
 
Gtr.1E|-------19p15----20p15----19p15-19-17-------15----|-14----------15----------17----------20----------|
     H|-17----------17-------17----------17-------------|-------------------------------------------------|
     G|-------------------------------------------------|-------------------------------------------------|
     D|-------------------------------------------------|-------------------------------------------------|
     A|-------------------------------------------------|-------------------------------------------------|
     E|-------------------------------------------------|-------------------------------------------------|
      |                                                 |                                                 |
Gtr.2E|-------------------------------------------------|-------------------------------------------------|
     H|-------------------------------------------------|-------------------------------------------------|
     G|-5-----------------------------------------------|-4-----------------------------------------------|
     D|-5-----------------------------------------------|-4-----------------------------------------------|
     A|-3-----------------------------------------------|-2-----------------------------------------------|
     E|-------------------------------------------------|-------------------------------------------------|
 
Gtr.1E|-19----20----17----20----------20----------20----|-------------------------------------------------|
     H|-------------------------20----------19----------|-16----------------------------------------------|
     G|-------------------------------------------------|-------------------------------------------------|
     D|-------------------------------------------------|-------------------------------------------------|
     A|-------------------------------------------------|-------------------------------------------------|
     E|-------------------------------------------------|-------------------------------------------------|
      |                                                 |                                                 |
Gtr.2E|-------------------------------------------------|-19----20----17----20----------20----------20----|
     H|-------------------------------------------------|-------------------------20----------19----------|
     G|-------------------------------------------------|-------------------------------------------------|
     D|-------------------------------------------------|-------------------------------------------------|
     A|-------------------------------------------------|-------------------------------------------------|
     E|-------------------------------------------------|-------------------------------------------------|
 
Gtr.1E|-------------------------------------------------|-------------------------------------------------|
     H|-12----13----10----13----------13----------13----|-------------------------------------------------|
     G|-------------------------12----------11----------|-8-----------------------------------------------|
     D|-------------------------------------------------|-------------------------------------------------|
     A|-------------------------------------------------|-------------------------------------------------|
     E|-------------------------------------------------|-------------------------------------------------|
      |                                                 |                                                 |
Gtr.2E|-------------------------------------------------|-------------------------------------------------|
     H|-16----------------------------------------------|-12----13----10----13----------13----------13----|
     G|-------------------------------------------------|-------------------------12----------11----------|
     D|-------------------------------------------------|-------------------------------------------------|
     A|-------------------------------------------------|-------------------------------------------------|
     E|-------------------------------------------------|-------------------------------------------------|
 
Gtr.1E|--------- 3/4 measure ---------------|--------- 3/4 measure ---------------|
     H|-10----------------------------------|-------------------------------------|
     G|-----11---8---11---8------8----------|-------------------------------------|
     D|----------------------10-----10--7---|-10--7-------7-----------------------|
     A|-------------------------------------|---------9-------9---6---9---6-------|
     E|-------------------------------------|---------------------------------8---|
 
Gtr.1E|-------------------------------------------------|-------------------------------------------------|
     H|-------------------------------------------------|-------------------------------------------------|
     G|-------------------------------------------------|-------------------------------------------------|
     D|-------------------------------------------------|-------------------------------------------------|
     A|-------------------------------------------------|-------------------------------------------------|
     E|--5----------------------------------------------|-------------------------------------------------|
      |                                                 |                                                 |
Gtr.2E|-------------------------------------------------|-------------------------------------------------|
     H|-------------------------------------------------|-------------------------------------------------|
     G|-------------------------------------------------|-------------------------------------------------|
     D|--7----------------------5-----------------------|-4-----------------------5-----------------------|
     A|--7----------------------5-----------------------|-5-----------------------6-----------------------|
     E|--5----------------------3-----------------------|-------------------------------------------------|

(3:57 - 4:00) Repeat RIFF 4

(4:00 - 4:27) VERSE 3

(4:27 - 4:41) CHORUS, without the last line

(4:41 - 4:54) CHORUS one more time; instead of the last line here goes:

(4:54 - 5:09)


OUTRO:
   3. -----------------------------------------------------> 
E|--ritenuto--------------------|-----------------------------|
H|------------------------------|-----------------------------|
G|---9-----10------9-----10-----|--9-----10-------------------|
D|------9------9------9------9--|-----9------9---7------------|
A|------------------------------|----------------7------------|
E|------------------------------|----------------5------------|

 






                       


Copyright © Музыкальный Портал на Куличках 1999-2007      music@kulichki.com


    Stolica.ru    
Реклама в Интернет