Stolica.ru Реклама на Куличках     

Аккорды песен:
A B C D E F G H I J K L M N O P Q R S T U V W X Y Z
АБВГДЕЖЗИКЛМНОПРСТУФХЦЧШЩЭЮЯ





Тексты песен :     A B C D E F G H I J K L M N O P Q R S T U V W X Y Z #

ПОЛНЫЙ СПИСОК ПЕСЕН ГРУППЫ




-->



АРИЯ   

Дай руку мне
------------
tabbed by Vladimir Gelfand ("Little Prince")

Tempo: moderately (127 bpm)

(0:01 - 0:31)


RIFF 1 (play 4 times): (w/heavy distortion)
Gtr.E||----------------------------------|---------------------------------|
    H||----------------------------------|-6---5---------------------------|
    G||--7-------5---7---R---------------|---------7---5-------------------|
    D||--7-------5---7---E---------------|---------------------------------|
    A||--5-----------5---S---------------|---------------------------------|
    E||------------------T---------------|---------------------------------|


Gtr. E|----------------------------------|---------------------------------||
     H|----------------------------------|---------------------------------||
     G|------------------R----------/5h6-|-----------------R---------------||
     D|--7-------5---7---E---------------|-7-------5---7---E---------------||
     A|--7-------5---7---S---------------|-7-------5---7---S---------------||
     E|--5-----------5---T---------------|-5-----------5---T---------------||

(0:32 - 0:50)

RIFF 2:

Gtr.1E|----------------------------------|---------------------------------|
Gtr.2H|--6---------------6-----8-----10--|-6---------------6-----8-----10--|
     G|--7---------------7-----9-----10--|-7---------------7-----9-----10--|
     D|----------------------------------|---------------------------------|
     A|----------------------------------|---------------------------------|
     E|----------------------------------|---------------------------------|
      |                                  |                                 |
Bass G|----------------------------------|---------------------------------|
     D|----------------------------------|---------------------------------|
     A|--5---5---5---5---5---5---5---5---|---------------------------------|
     E|----------------------------------|-6---6---6---6---6---6---6---6---|
 

Gtr.1E|----------------------------------|---------------------------------|
Gtr.2H|--8---------------8-----10----11--|----------------/11----10----8---|
     G|--9---------------9-----10----12--|-9--------------/12----10----9---|
     D|----------------------------------|-10------------------------------|
     A|----------------------------------|---------------------------------|
     E|----------------------------------|---------------------------------|
      |                                  |                                 |
Bass G|----------------------------------|---------------------------------|
     D|----------------------------------|---------------------------------|
     A|--3---3---3---3---3---3---3---3---|---------------------------------|
     E|----------------------------------|-5---5---5---5---5---5---5---5---|
 

Gtr.1E|----------------------------------|---------------------------------|
Gtr.2H|--8--\6-----------6-----8-----10--|-----------------------5-----6---|
     G|--9--\7-----------7-----9-----10--|-7---------------7-----5-----7---|
     D|----------------------------------|-8---------------8---------------|
     A|----------------------------------|---------------------------------|
     E|----------------------------------|---------------------------------|
      |                                  |                                 |
Bass G|----------------------------------|---------------------------------|
     D|----------------------------------|---------------------------------|
     A|--5---5---5---5---5---5---5---5---|---------------------------------|
     E|----------------------------------|-6---6---6---6---6---6---6---6---|
 

Gtr.1E|----------------------------------|---------------------------------|
Gtr.2H|------------------------6-----8---|-6-------------------------------|
     G|--6---------------9-----7-----9---|-7-------------------------------|
     D|--7---------------7---------------|---------------------------------|
     A|----------------------------------|---------------------------------|
     E|----------------------------------|---------------------------------|
      |                                  |                                 |
Bass G|----------------------------------|---------------------------------|
     D|----------------------------------|---------------------------------|
     A|----------------------------------|-5---5---5---5---5---5---5---5---|
     E|--5---5---5---5---5---5---5---5---|---------------------------------|
 

Gtr. E|-17p13-------13\10---------------------------|---------------------------------|
     H|-------15---------15----15p10----------------|---------------------------------|
     G|----------14---------10------10---12-10-9----|-7---------------6---------------|
     D|-------------------------------12---------10-|-8---------------7---------------|
     A|---------------------------------------------|---------------------------------|
     E|---------------------------------------------|---------------------------------|
      |                                  |                                 |
Bass G|----------------------------------|---------------------------------|
     D|----------------------------------|---------------------------------|
     A|--8---8---5---5-------------------|-5---------------4---------------|
     E|------------------6---6---3---3---|-6---------------5---------------|

(0:51 - 1:20)

VERSE 1:
    Day        ru   -   ku      mne!
E|----------------------------------|---------------------------------|
H|----------------------------------|---------------------------------|
G|----------------------------------|---------------------------------|
D|--7-----------5-------3-------7---|-7-----------3---3---------------|
A|--5-----------3-------1-------5---|-5-----------1---1---------------|
E|----------------------------------|---------------------------------|


E|----------------------------------|---------------------------------|
H|----------------------------------|---------------------------------|
G|----------------------------------|---------------------------------|
D|--------------5---------------3---|---------------------------------|
A|--0---4---7-----------4---5-------|-----0---1---0-------0---5---0---|
E|----------------------------------|-----------------1---------------|
  Zdes'        lish  -  nih     net!
E|----------------------------------|---------------------------------|
H|----------------------------------|---------------------------------|
G|----------------------------------|---------------------------------|
D|--7-----------5-------3-------7---|-7-----------3---3---------------|
A|--5-----------3-------1-------5---|-5-----------1---1---------------|
E|----------------------------------|---------------------------------|


E|----------------------------------|----------------A.H.----A.H.-----|
H|----------------------------------|---------------------------------|
G|----------------------------------|---------------------------------|
D|--------------5---------------3---|----------------<3>-----<2>------|
A|--0---4---7-----------4---5-------|-----0---1---0-------------------|
E|----------------------------------|---------------------------------|
    Vet    -    ru              ty  kazhesh'sya  ne  bol' - she  pes -
E|----------------------------------|---------------------------------|
H|----------------------------------|---------------------------------|
G|----------3-----------3-----------|---------3-----------3-------2---|
D|----------3-----------3-----------|---------3-----------3-------0---|
A|--1---1-------0---1-----------0---|-1---1-------0---1---------------|
E|----------------------------------|---------------------------------|
   chin   -   ki.
E|----------------------------------|---------------------------------|
H|----------------------------------|---------------------------------|
G|-(2)------------------2-------x---|-2-------x---x---2---------------|
D|-(0)------------------0-------x---|-0-------x---x---0---------------|
A|----------------------------------|---------------------------------|
E|----------------------------------|---------------------------------|
     Ve    -    ter            leg - ko  sobyot  s doro  -  gi,
E|----------------------------------|---------------------------------|
H|----------------------------------|---------------------------------|
G|----------3-----------3-----------|---------3-----------3-----------|
D|----------3-----------3-----------|---------3-----------3-----------|
A|--1---1-------0---1-----------0---|-1---1-------0---1---------------|
E|----------------------------------|---------------------------------|
    es - li  v  skitan  -  yah       ty       o  -  di - nok.
E|----------------------------------|---------------------------------|
H|----------------------------------|---------------------------------|
G|------------------3-------2-------|-5-------3-------2---2-----------|
D|------------------3-------2-------|-5-------3-------2---2-----------|
A|--0---0---0---0---1-------0-------|-3-------1-------0---0-----------|
E|----------------------------------|---------------------------------|
(1:21 - 1:50) VERSE 2
(1:51 - 2:06)
CHORUS:
    Sila    tvo - ya               v tom, chto ty  est'.   
E|----------------------------------|---------------------------------|
H|----------------------------------|-6---5---------------------------|
G|--7-------5---7---R---------------|---------7---5-------------------|
D|--7-------5---7---E---------------|---------------------------------|
A|--5-----------5---S---------------|---------------------------------|
E|------------------T---------------|---------------------------------|
    Sila    tvo - ya               v tom, chto my zdes'.
E|----------------------------------|---------------------------------|
H|----------------------------------|---------------------------------|
G|------------------R----------/5h6-|---------------------5-----------|
D|--7-------5---7---E---------------|-7-------5---7-------5-----------|
A|--7-------5---7---S---------------|-7-------5---7-------------------|
E|--5-----------5---T---------------|-5-----------5-------------------|
   Sila    tvo - ya                v tom, chto ty  est'.   
E|----------------------------------|---------------------------------|
H|----------------------------------|-6---5---------------------------|
G|--7-------5---7---R---------------|---------7---5-------------------|
D|--7-------5---7---E---------------|---------------------------------|
A|--5-----------5---S---------------|---------------------------------|
E|------------------T---------------|---------------------------------|
   Sila    tvo - ya                v tom, chto my zdes'.
E|----------------------------------|---------------------------------|
H|----------------------------------|---------------------------------|
G|------------------R----------/5h6-|---------------------------------|
D|--7-------5---7---E---------------|-7-------5---7-------------------|
A|--7-------5---7---S---------------|-7-------5---7-------------------|
E|--5-----------5---T---------------|-5-----------5-------------------|

(2:06 - 2:25) RIFF 2
(2:25 - 2:54) VERSE 3
(2:55 - 3:10) CHORUS
(3:10 - 3:41)

SOLO:
E|-------------------------------------------------T|---T---T---T---T---T---T---T---T---T---T---T---T--|
H|--17bend19---\\ press tremolo bar \\-------------20p15-20p15-20p15-20p14-20p14-20p14-20p12-20p12-20p12-20p10-20p10-20p10-20p-|
G|--------------------------------------------------|--------------------------------------------------|
D|--------------------------------------------------|--------------------------------------------------|
A|--------------------------------------------------|--------------------------------------------------|
E|--------------------------------------------------|--------------------------------------------------|


E|----T---T---T---T---T---T---T---T---T-------------|--------------------------------------------------|
H|-p8-20p8-20p8-20p7-20p7-20p7-20p5-20p5-20p5-20p3--5--3--2--|--------------------2-----5~~~~~~~----3~~~~~~~~---|
G|--------------------------------------------------|-3------------------------------------------------|
D|--------------------------------------------------|--------------------------------------------------|
A|--------------------------------------------------|--------------------------------------------------|
E|--------------------------------------------------|--------------------------------------------------|


E|--------------------------------------------9-----|-(9)---------------/14~~~~~~~~~~~~~~~~~~~~--------|
H|--2h3p2------------------------------7h8h10-------|--------------------------------------------------|
G|--------4-----------------4h6h7-7-/9--------------|--------------------------------------------------|
D|--------------------------.-.-.-.--.--------------|--------------------------------------------------|
A|--------------------------------------------------|--------------------------------------------------|
E|--------------------------------------------------|--------------------------------------------------|


E|--------------------------6---7---6---------------|-12bend14----\\ press tremolo bar \\--------------|
H|-------------------/6--7--------------7---6---5---|--------------------------------------------------|
G|--------3-h4-h6-----------------------------------|--------------------------------------------------|
D|-----3--.--.--.-----------------------------------|--------------------------------------------------|
A|-----.--------------------------------------------|--------------------------------------------------|
E|--------------------------------------------------|--------------------------------------------------|


E|--------------------------------------------------|--------------------------------------------------|
H|--------------------------------------------------|--------------------------------------8---10--11--|
G|--7~~~~~~~~~~~~~~---------7-----------9-----10----|-7~~~~~~~~~~~-------------7---9---10--------------|
D|--------------------------------------------------|--------------------------------------------------|
A|--------------------------------------------------|--------------------------------------------------|
E|--------------------------------------------------|--------------------------------------------------|


E|--------------------------------------------------|-<5>-6--5----<5>----------------------------------|
H|--------------------------------------6---7---8---|----------6p5-----8p5-----8--5-----------5--------|
G|--9~~~~~~~~~~~~~----------7---8---9---.---.---.---|----------------------7p6-------7--6--7-----7--6--|
D|--------------------------.---.---.---------------|--------------------------------------------------|
A|--------------------------------------------------|-Semi.H.------------------------------------------|
E|--------------------------------------------------|--------------------------------------------------|
                                 T 
E|--------------------------/13-17p13p10------------|--------------------------------------------------|
H|---------------------------------------10~~~~~~---|--------------------------------------------------|
G|--7-----------------------------------------------|-10--------------10-10p9--------------------------|
D|--------------------------------------------------|-------------------------12-----------------------|
A|--------------------------------------------------|--------------------------------------------------|
E|--------------------------------------------------|--------------------------------------------------|


E|-/17-17-18-18-17p15---------------------------------------|--------------------------------------------------|
H|--------------------18-18p17p15----.... ???? ...----------|--------------------------------------------------|
G|--------------------------------------------------|--------------------------------------------------|
D|--------------------------------------------------|--------------------------------------------------|
A|--------------------------------------------------|--------------------------------------------------|
E|--------------------------------------------------|--------------------------------------------------|


E|--------------------------------------------------|
H|--------------------------------------------------|
G|--------------------------------------------------|
D|--------------------------------------------------|
A|--------0-----1-----0-----------0-----5-----0-----|
E|--------------------------1-----------------------|

(3:42 - 4:11) Repeat VERSE 2
(4:11 - 4:26)

CHORUS 1:
   Sila   tvo - ya                 v tom, chto ty  est'.   
E|----------------------------------|----------------------------------|
H|----------------------------------|----------------------------------|
G|--7-----------7---------------7---|-(7)----------5---------------5---|
D|--7-----------7---------------7---|-(7)----------5---------------5---|
A|--5-----------5---------------5---|-(5)----------3---------------3---|
E|----------------------------------|----------------------------------|
   Sila   tvo - ya                 v tom, chto my zdes'.
E|----------------------------------|----------------------------------|
H|----------------------------------|----------------------------------|
G|-(5)------------------------------|------------------------------5---|
D|-(5)----------7---------------7---|-(7)----------7---------------5---|
A|-(3)----------7---------------7---|-(7)----------7---------------3---|
E|--------------5---------------5---|-(5)----------5-------------------|
   Sila   tvo - ya                 v tom, chto ty  est'.   
E|----------------------------------|----------------------------------|
H|----------------------------------|----------------------------------|
G|-(5)----------7---------------7---|-(7)----------5---------------5---|
D|-(5)----------7---------------7---|-(7)----------5---------------5---|
A|-(3)----------5---------------5---|-(5)----------3---------------3---|
E|----------------------------------|----------------------------------|
   Sila   tvo - ya                 v tom, chto my zdes'.
E|----------------------------------|----------------------------------|
H|----------------------------------|----------------------------------|
G|-(5)------------------------------|----------------------------------|
D|-(5)----------7---------------7---|-(7)----------7-------------------|
A|-(3)----------7---------------7---|-(7)----------7-------------------|
E|--------------5---------------5---|-(5)----------5-------------------|
(4:26 - 4:41) CHORUS
(4:41 - 5:00) RIFF 2
(5:01 - 5:04)
OUTRO:
E|---------------------------------|---------------------------------|
H|---------------------------------|---------------------------------|
G|---------------------------------|---------------------------------|
D|-----------------------------7---|-(7)-----------------------------|
A|-----0---1---0-------0---5---5---|-(5)-----------------------------|
E|-----------------1---------------|---------------------------------|

 






                       


Copyright © Музыкальный Портал на Куличках 1999-2007      music@kulichki.com


    Stolica.ru    
Реклама в Интернет