Stolica.ru Реклама на Куличках     

Аккорды песен:
A B C D E F G H I J K L M N O P Q R S T U V W X Y Z
АБВГДЕЖЗИКЛМНОПРСТУФХЦЧШЩЭЮЯ





Тексты песен :     A B C D E F G H I J K L M N O P Q R S T U V W X Y Z #

ПОЛНЫЙ СПИСОК ПЕСЕН ГРУППЫ




-->



АРИЯ   

Волонтир
-------
tabbed by Vladimir Gelfand ("Little Prince")

Tempo: moderately slow (90 bpm)
(0:42 - 2:02)
INTRO: (consists of Parts A,B,C,D,E)

PART A: (Bass only)
Bass G|--------------------------------------------------|-------------------------------------------------|
     D|--------------------------------------------------|-------------------------------------------------|
     A|--6-----6--6--6-----6--6--6-----6--6--6-----6--6--|-6-----6--6--6-----6--6--6-----6--6--6-----6--6--|
     E|--------------------------------------------------|-------------------------------------------------|
Bass G|--------------------------------------------------|-------------------------------------------------|
     D|--------------------------------------------------|-------------------------------------------------|
     A|--4-h6--6--6--6-----6--6--6-----6--6--6-----6--6--|-6-----6--6--6-----6--6--6-----6--6--6-----6--6--|
     E|--------------------------------------------------|-------------------------------------------------|

PART B: ( Lead (two harmonies) joins )
Bass G|--------------------------------------------------|-------------------------------------------------|
     D|--------------------------------------------------|-------------------------------------------------|
     A|--4-h6--6--6--6-----6--6--6-----6--6--6-----6--6--|-6-----6--6--6-----6--6--6-----6--6--6-----6--6--|
     E|--------------------------------------------------|-------------------------------------------------|
      |                                                  |                                                 |
Gtr.1E|--------------------------------------------------|-------------------------------------------------|
Gtr.2H|-------------------/11----------------11----9-----|-(9)---------------------------------------------|
     G|-------------------/11----------11----11----10----|-(10)--------------------------------------------|
     D|--------------------------------13----------------|-------------------------------------------------|
     A|--------------------------------------------------|-------------------------------------------------|
     E|--------------------------------------------------|-------------------------------------------------|
 
Bass G|--------------------------------------------------|-------------------------------------------------|
     D|--------------------------------------------------|-------------------------------------------------|
     A|--4-h6--6--6--6-----6--6--6-----6--6--6-----6--6--|-6-----6--6--6-----6--6--6-----6--6--6-----6--6--|
     E|--------------------------------------------------|-------------------------------------------------|
      |                                                  |                                                 |
Gtr.1E|--------------------------------------------------|-------------------------------------------------|
Gtr.2H|-------------------/11----------------11----9-----|-(9)---------------9-----------11----------------|
     G|-------------------/11----------11----11----10----|-(10)--11----------10----------11----------------|
     D|--------------------------------13----------------|-------13----------------------------------------|
     A|--------------------------------------------------|-------------------------------------------------|
     E|--------------------------------------------------|-------------------------------------------------|
 
Bass G|--------------------------------------------------|-------------------------------------------------|
     D|--------------------------------------------------|-------------------------------------------------|
     A|--4-h6--6--6--6-----6--6--6-----6--6--6-----6--6--|-6-----6--6--6-----6--6--6-----6--6--6-----6--6--|
     E|--------------------------------------------------|-------------------------------------------------|
      |                                                  |                                                 |
Gtr.1E|--------------------------------------------------|-------------------------------------------------|
Gtr.2H|-------------------/11----------------11----9-----|-(9)---------------------------------------------|
     G|-------------------/11----------11----11----10----|-(10)--------------------------------------------|
     D|--------------------------------13----------------|-------------------------------------------------|
     A|--------------------------------------------------|-------------------------------------------------|
     E|--------------------------------------------------|-------------------------------------------------|
 
Bass G|--------------------------------------------------|-------------------------------------------------|
     D|--------------------------------------------------|-------------------------------------------------|
     A|--4-h6--6--6--6-----6--6--6-----6--6--6-----6--6--|-6-----6--6--6-----6--6--6-----6--6--6-----6--6--|
     E|--------------------------------------------------|-------------------------------------------------|
      |                                                  |                                                 |
Gtr.1E|--------------------------------------------------|-------------------------------------------------|
Gtr.2H|-------------------/11----------------11----9-----|-(9)---------------9-----------11----------------|
     G|-------------------/11----------11----11----10----|-(10)--11----------10----------11----------------|
     D|--------------------------------13----------------|-------13----------------------------------------|
     A|--------------------------------------------------|-------------------------------------------------|
     E|--------------------------------------------------|-------------------------------------------------|
PART C:
Bass G|--------------------------------------------------|-------------------------------------------------|
     D|--------------------------------------------------|-------------------------------------------------|
     A|--------------------------------------------------|-------------------------------------------------|
     E|--4-----4--4--4-----4--4--4-----4--4--4-----4--4--|-4-----4--4--4-----4--4--4-----4--4--4-----4--4--|
      |                                                  |                                                 |
Gtr.1E|--------------------------------------------------|-------------------------------14----------------|
Gtr.2H|-------------------/12----------------12----14----|-(14)--------------12----------16----------------|
     G|-------------------/13----------15----13----15----|-(15)--15----------13----------------------------|
     D|--------------------------------16----------------|-------16----------------------------------------|
     A|--------------------------------------------------|-------------------------------------------------|
     E|--------------------------------------------------|-------------------------------------------------|
 
Bass G|--------------------------------------------------|-------------------------------------------------|
     D|--------------------------------------------------|-------------------------------------------------|
     A|--------------------------------------------------|-------------------------------------------------|
     E|--4-----4--4--4-----4--4--4-----4--4--4-----4--4--|-4-----4--4--4-----4--4--4-----4--4--4-----4--4--|
      |                                                  |                                                 |
Gtr.1E|-(14)---------------------------------------------|-------------------------------14----------14----|
Gtr.2H|-(16)---------------12----------------12----14----|-(14)--------------12----------16----------16-12-|
     G|--------------------13----------15----13----15----|-(15)--15----------13----------------16p13----13-|
     D|--------------------------------16----------------|-------16----------------------------------------|
     A|--------------------------------------------------|-------------------------------------------------|
     E|--------------------------------------------------|-------------------------------------------------|
PART D:
Bass G|--------------------------------------------------|-------------------------------------------------|
     D|--------------------------------------------------|-------------------------------------------------|
     A|--4-h6--6--6--6-----6--6--6-----6--6--6-----6--6--|-6-----6--6--6-----6--6--6-----6--6--6-----6--6--|
     E|--------------------------------------------------|-------------------------------------------------|
      |                                                  |                                                 |
Gtr.1E|--------------------------------------------------|-------------------------------------------------|
Gtr.2H|-(12)\-------------/11----------------11----9-----|-(9)---------------------------------------------|
     G|-(13)\-------------/11----------11----11----10----|-(10)--------------------------------------------|
     D|--- sl -------------------------13----------------|-------------------------------------------------|
     A|-- down ------------------------------------------|-------------------------------------------------|
     E|--------------------------------------------------|-------------------------------------------------|
 
Bass G|--------------------------------------------------|-------------------------------------------------|
     D|--------------------------------------------------|-------------------------------------------------|
     A|--4-h6--6--6--6-----6--6--6-----6--6--6-----6--6--|-6-----6--6--6-----6--6--6-----6--6--6-----6--6--|
     E|--------------------------------------------------|-------------------------------------------------|
      |                                                  |                                                 |
Gtr.1E|--------------------------------------------------|-------------------------------------------------|
Gtr.2H|-------------------/11----------------11----9-----|-(9)---------------9-----------------------------|
     G|-------------------/11----------11----11----10----|-(10)--11----------10-------------------------10-|
     D|--------------------------------13----------------|-------13----------------------------------9-----|
     A|--------------------------------------------------|-------------------------------------8-/9--------|
     E|--------------------------------------------------|-------------------------------------------------|
 
Bass G|--------------------------------------------------|-------------------------------------------------|
     D|--------------------------------------------------|-------------------------------------------------|
     A|--4-h6--6--6--6-----6--6--6-----6--6--6-----6--6--|-4-h6--6--6--6-----6--6--6-----6--6--6-----6--6--|
     E|--------------------------------------------------|-------------------------------------------------|
      |                                                  |                                                 |
Gtr.1E|--------------------------------------------------|-------------------------------------------------|
Gtr.2H|--------------------------------------------------|-------------------------------------------------|
     G|-(10)---------------------------------------13\11-|-(11)-----------------------------------------10-|
     D|--------------------------------------------------|-------------------------------------------9-----|
     A|--------------------------------------8-/9--11-\9-|-(9)---------------------------------8-/9--------|
     E|--------------------------------------------------|-------------------------------------------------|
 
Bass G|--------------------------------------------------|-------------------------------------------------|
     D|--------------------------------------------------|-------------------------------------4--3--------|
     A|--4-h6--6--6--6-----6--6--6-----6--6--6-----6--6--|-4-h6--6--6--6-----6--6--6-----4--6--------6--4--|
     E|--------------------------------------------------|-------------------------------------------------|
      |                                                  |                                                 |
Gtr.1E|--------------------------------------------------|-------------------------------------------------|
Gtr.2H|--------------------------------------------------|-------------------------------------------------|
     G|-(10)---------------------------------------13\11-|-(11)--------------------------------------------|
     D|--------------------------------------------------|-------------------------------------------------|
     A|--------------------------------------8-/9--11-\9-|-(9)---------------------------------------------|
     E|--------------------------------------------------|-------------------------------------------------|
PART E:
Bass G|--------------------------------------------------|-------------------------------------------------|
     D|--------------------------------------------------|-------------------------------------------------|
     A|--2-----2--2--2-----2--2--2-----2--2--2-----2--2--|-2-----2--2--2-----2--2--2-----2--2--2-----2--2--|
     E|--------------------------------------------------|-------------------------------------------------|
      |                                                  |                                                 |
Gtr.1E|--------------------------------------------------|-------------------------------------------------|
Gtr.2H|--------12-12-12----11-11-11h12p11\9--9--9h11p9\7--7--|-7h9p7\6--6--6h7p6-7--7--7-----------------------|
     G|--------13-13-13----11-11-11h13p11\10-10-10h11p10\8--8--|-8h10p8\6--6--6h8p6-8--8--8-----------------------|
     D|--------------------------------------------------|-------------------------------------------------|
     A|--------------------------------------------------|-------------------------------------------------|
     E|--------------------------------------------------|-------------------------------------------------|
 
Bass G|--------------------------------------------------|-------------------------------------------------|
     D|--------------------------------------------------|-------------------------------------------------|
     A|--------------------------------------------------|-4-----4--4--4-----4--4--------------------------|
     E|--4-----4--4--4-----4--4--4-----4--4--4-----4--4--|-------------------------6-----6--6--6-----6--6--|
      |                                                  |                                                 |
Gtr.1E|--------------------------------------------------|-------------------------------------------------|
Gtr.2H|--------12-12-12----11-11-11h12p11\9--9--9h11p9\7--7--|-7h9p7\6--6--6h7p6-7--7--7-----------------------|
     G|--------13-13-13----11-11-11h13p11\10-10-10h11p10\8--8--|-8h10p8\6--6--6h8p6-8--8--8--------------------10-|
     D|--------------------------------------------------|-------------------------------------------9-----|
     A|--------------------------------------------------|-------------------------------------8-/9--------|
     E|--------------------------------------------------|-------------------------------------------------|
 
Bass G|--------------------------------------------------|-------------------------------------------------|
     D|--------------------------------------------------|-------------------------------------------------|
     A|--6-----------------------------------------------|-------------------------------------------------|
     E|--------------------------------------------------|-------------------------------------------------|
      |                                                  |                                                 |
Gtr. E|--------------------------------------------------|-------------------------------------------------|
     H|--------------------------------------------------|-------------------------------------------------|
     G|-(10)---------------------------------------------|-------------------------------------------------|
     D|--------------------------------------------------|-------------------------------------------------|
     A|--------------------------------------------------|-------------------------------------------------|
     E|--------------------------------------------------|-------------------------------------------------|
(2:03 - 2:24)
VERSE 1:
VoiceE|--------------------------------------------------------------------|
     H|--------------------------------------------------------------------|
     G|--------------------------------------------------------------------|
     D|------8--8--8----6--6--6--4--6----8-8-------------------------------|
     A|--------------------------------------------------------------------|
     E|----- On rubil, podzhigal i bil v upor -----------------------------|
      |                                  |                                 |
Bass G|----------------------------------|---------------------------------|
     D|----------------------------------|---------------------------------|
     A|--6---6-6-6---6-6-6---6-6-6---6-6-|-6---6-6-6---6-6-6---6-6-6-6-6-6-|
     E|----------------------------------|---------------------------------|
 
VoiceE|--------------------------------------------------------------------|
     H|--------------------------------------------------------------------|
     G|--------------------------------------------------------------------|
     D|--8-8---8----6--6---6--4---4--6--6-8----6-4-------------------------|
     A|----------------------------------------------8-6-------------------|
     E|-Volontyor tyomnyh del i chuzhih afyo - o o - o or -----------------|
      |                                  |                                 |
Bass G|----------------------------------|---------------------------------|
     D|----------------------------------|---------------------------------|
     A|--6---6-6-6---6-6-6---6-6-6---6-6-|-6---6-6-6---6-6-6---6-6-6-6-6-6-|
     E|----------------------------------|---------------------------------|
 
VoiceE|--------------------------------------------------------------------|
     H|--------------------------------------------------------------------|
     G|--------------------------------------------------------------------|
     D|-----8--8--8----6-6-6---4---6-8-----8-------------------------------|
     A|--------------------------------------------------------------------|
     E|---  On kopil, sobiral na starost' let -----------------------------|
      |                                  |                                 |
Bass G|----------------------------------|---------------------------------|
     D|----------------------------------|---------------------------------|
     A|--6---6-6-6---6-6-6---6-6-6---6-6-|-6---6-6-6---6-6-6---6-6-6-6-6-6-|
     E|----------------------------------|---------------------------------|
 
VoiceE|--------------------------------------------------------------------|
     H|--------------------------------------------------------------------|
     G|--------------------------------------------------------------------|
     D|-----8---8-8-----6--6-6--4--4-6-6---8---6-4-------------------------|
     A|----------------------------------------------8-6-------------------|
     E|--   On zabyl,  no  ego ne zabyli, ne - e e - e et -----------------|
      |                                  |                                 |
Bass G|----------------------------------|---------------------------------|
     D|----------------------------------|-------------------------4-3-----|
     A|--6---6-6-6---6-6-6---6-6-6---6-6-|-6---6-6-6---6-6-6---4-6-----6-4-|
     E|----------------------------------|---------------------------------|
(2:24 - 2:40)
CHORUS:
VoiceE|--------------------------------------------------------------------|
     H|--------------------------------------------------------------------|
     G|--------------------------------------------------------------------|
     D|--4-------3-------------------------6-------4---------------4-------|
     A|---------------6---------------------------------6------------------|
     E|-Kazh -  dyy  sam,                 kazh -  dyy  sam        za   ----|
      |                                  |                                 |
Bass G|----------------------------------|---------------------------------|
     D|----------------------------------|---------------------------------|
     A|--2---2-2-2---2-2-2---2-2-2---2-2-|-----------------4---4-4-4---4-4-|
     E|----------------------------------|-4---4-4-4---4-4-----------------|
      |                                  |                                 |
Gtr. E|----------------------------------|---------------------------------|
     H|----------------------------------|---------------------------------|
     G|----------------------------------|---------------------------------|
     D|----------------------------------|-----------------11--------------|
     A|--9-------------------------------|-6---------------9---------------|
     E|--7-------------------------------|-4-------------------------------|
 
VoiceE|--------------------------------------------------------------------|
     H|--------------------------------------------------------------------|
     G|--------------------------------------------------------------------|
     D|--------------------------------------------------------------------|
     A|---6----------------------------------------------------------------|
     E|- vsyo   -----------------------------------------------------------|
      |                                  |                                 |
Bass G|----------------------------------|---------------------------------|
     D|----------------------------------|-------------------------4-3-----|
     A|--6---6-6-6---6-6-6---6-6-6---6-6-|-6---6-6-6---6-6-6---4-6-----6-4-|
     E|----------------------------------|---------------------------------|
      |                                  |                                 |
Gtr. E|----------------------------------|---------------------------------|
     H|----------------------------------|---------------------------------|
     G|----------------------------------|---------------------------------|
     D|--8-------------------------------|-(8)-----------------------------|
     A|--6-------------------------------|-(6)-----------------------------|
     E|----------------------------------|---------------------------------|
 
        1.---------------------------------------------------------------->
VoiceE|--------------------------------------------------------------------|
     H|--------------------------------------------------------------------|
     G|--------------------------------------------------------------------|
     D|--4-------3-------------------------6----6--6---4---8---------------|
     A|---------------6----------------------------------------------------|
     E|-Kazh  - dyy  sam                  ot - vecha - et tam.   ----------|
      |                                  |                                 |
Bass G|----------------------------------|-------------------R-------------|
     D|----------------------------------|-------------------E-------------|
     A|--2---2-2-2---2-2-2---2-2-2---2---|-------------------S-------------|
     E|--------------------------------2-|/4---4-4-4---4-4-6-T-------------|
      |                                  |                                 |
Gtr. E|----------------------------------|---------------------------------|
     H|----------------------------------|---------------------------------|
     G|----------------------------------|-------------------R-----------10|
     D|----------------------------------|-------------------E---------9---|
     A|--9-------------------------------|-6---------------8-S-----8/9-----|
     E|--7-------------------------------|-4---------------6-T-------------|
(2:40 - 2:45)
Bass G|----------------------------------|---------------------------------|
     D|----------------------------------|---------------------------------|
     A|--6---6-6-6---6-6-6---6-6-6---6-6-|-6---6-6-6---6-6-6---6-6-6-6-6-6-|
     E|----------------------------------|---------------------------------|
      |                                  |                                 |
Gtr. E|----------------------------------|---------------------------------|
     H|----------------------------------|---------------------------------|
     G|-(10)-----------------------------|---------------------------------|
     D|----------------------------------|---------------------------------|
     A|----------------------------------|---------------------------------|
     E|----------------------------------|---------------------------------|
(2:46 - 3:07) VERSE 2
(3:07 - 3:23) CHORUS, with alternative ending:
        2.--------------------------------------------------------------->
        Kazh -  dyy  sam                   otvecha - yet  tam.
Bass G|----------------------------------|-------------------R-------------|
     D|----------------------------------|-------------------E-------------|
     A|--2---2-2-2---2-2-2---2-2-2---2---|-------------------S-------------|
     E|--------------------------------2-|/4---4-4-4---4-4-6-T-------------|
      |                                  |                                 |
Gtr. E|----------------------------------|---------------------------------|
     H|----------------------------------|---------------------------------|
     G|----------------------------------|-------------------R-------------|
     D|----------------------------------|-------------------E-------------|
     A|--9-------------------------------|-6---------------8-S-------------|
     E|--7-------------------------------|-4---------------6-T-------------|
(3:23 - 3:44)
RIFF 1:

Gtr. E|----------D--D--D---------D--D--D-|---------D--D--D---------D--D--D-|
     H|----------R--R--R---------R--R--R-|---------R--R--R---------R--R--R-|
     G|----------U--U--U---------U--U--U-|---------U--U--U---------U--U--U-|
     D|--8-------M--M--M-11--10--M--M--M-|-8-------M--M--M-11--10--M--M--M-|
     A|--8---------------11--10----------|-8---------------11--10----------|
     E|--6---------------9---8-----------|-6---------------9---8-----------|

Gtr. E|----------D--D--D---------D--D--D-|---------D--D--D---------D--D--D-|
     H|----------R--R--R---------R--R--R-|---------R--R--R---------R--R--R-|
     G|----------U--U--U---------U--U--U-|---------U--U--U---------U--U--U-|
     D|--8-------M--M--M-11--10--M--M--M-|-8-------M--M--M-11--10--M--M--M-|
     A|--8---------------11--10----------|-8---------------11--10----------|
     E|--6---------------9---8-----------|-6---------------9---8-----------|

Gtr. E|----------D--D--D---------D--D--D-|---------D--D--D---------D--D--D-|
     H|----------R--R--R---------R--R--R-|---------R--R--R---------R--R--R-|
     G|----------U--U--U---------U--U--U-|---------U--U--U---------U--U--U-|
     D|--6-------M--M--M-9---8---M--M--M-|-6-------M--M--M-9---8---M--M--M-|
     A|--6---------------9---8-----------|-6---------------9---8-----------|
     E|--4---------------7---6-----------|-4---------------7---6-----------|

Gtr. E|----------D--D--D---------D--D--D-|---------D--D--D---------D--D--D-|
     H|----------R--R--R---------R--R--R-|---------R--R--R---------R--R--R-|
     G|----------U--U--U---------U--U--U-|---------U--U--U---------U--U--U-|
     D|--6-------M--M--M-9---8---M--M--M-|-6-------M--M--M-9---8---M--M--M-|
     A|--6---------------9---8-----------|-6---------------9---8-----------|
     E|--4---------------7---6-----------|-4---------------7---6-----------|

(3:44 - 4:16)
INTERLUDE:
Bass G|----------------------------------|---------------------------------|
     D|----------------------------------|---------------------------------|
     A|--8-8-8-8-8-8-8-8-8-8-8-8-6-8-9-6-|-8-8-8-8-8-8-8-8-8-8-8-8-6-8-9-6-|
     E|----------------------------------|---------------------------------|
 
Bass G|----------------------------------|---------------------------------|
     D|----------------------------------|---------------------------------|
     A|--8-8-8-8-8-8-8-8-8-8-8-8-6-8-9-6-|-8-8-8-8-8-8-8-8-8-8-8-8-6-8-9-6-|
     E|----------------------------------|---------------------------------|
 
        Dazhe  lyogkoe  dvizhenie   videl  chey-to  glaz
Bass G|----------------------------------|---------------------------------|
     D|----------------------------------|---------------------------------|
     A|--8-8-8-8-8-8-8-8-8-8-8-8-6-8-9-6-|-8-8-8-8-8-8-8-8-8-8-8-8-6-8-9-6-|
     E|----------------------------------|---------------------------------|
      |                                  |                                 |
Gtr. E|----------------------------------|---------------------------------|
     H|----------------------------------|---------------------------------|
     G|--10------------------------------|-----------------10----10--------|
     D|--10------------------------------|-----------------10----10--------|
     A|--8-------------------------------|---------------8-8-8-8-8---------|
     E|----------------------------------|---------------------------------|
 
        Chyi-to  ushi  samyy  dal'niy   slyshali  rasskaz
Bass G|----------------------------------|---------------------------------|
     D|----------------------------------|---------------------------------|
     A|--8-8-8-8-8-8-8-8-8-8-8-8-6-8-9-6-|-8-8-8-8-8-8-8-8-8-8-8-8-6-8-9-8-|
     E|----------------------------------|---------------------------------|
      |                                  |                                 |
Gtr. E|----------------------------------|---------------------------------|
     H|----------------------------------|---------------------------------|
     G|--10------------------------------|-----------------10----10--------|
     D|--10------------------------------|-----------------10----10--------|
     A|--8-------------------------------|---------------8-8-8-8-8---------|
     E|----------------------------------|---------------------------------|
 
          i   kogda  nastupit  vremya   platy  po  schetam
Bass G|----------------------------------|---------------------------------|
     D|----------------------------------|---------------------------------|
     A|--6-6-6-6-6-6-6-6-6-6-6-6-6-6-6-6-|-6-6-6-6-6-6-6-6-6-6-6-6-6-8-9-6-|
     E|----------------------------------|---------------------------------|
      |                                  |                                 |
Gtr. E|----------------------------------|---------------------------------|
     H|----------------------------------|---------------------------------|
     G|--8-------------------------------|-----------------8-----8---------|
     D|--8-------------------------------|-----------------8-----8---------|
     A|--6-------------------------------|---------------6-6-6-6-6---------|
     E|----------------------------------|---------------------------------|
 
        pokayanye  ne  pomozhet   nam
Bass G|----------------------------------|---------------------------------|
     D|----------------------------------|---------------------------------|
     A|--8-8-8-8-8-8-8-8-8-8-8-8-6-8-9-6-|-8-8-8-8-8-8-8-8-8-8-8-8-8-8-8---|
     E|----------------------------------|-------------------------------9-|
      |                                  |                                 |
Gtr. E|----------------------------------|---------------------------------|
     H|----------------------------------|---------------------------------|
     G|--10------------------------------|-----------------10----10--------|
     D|--10------------------------------|-----------------10----10--------|
     A|--8-------------------------------|---------------8-8-8-8-8---------|
     E|----------------------------------|---------------------------------|
(4:16 - 4:35)

BRIDGE:
VoiceE|----------------------------------------------------)

BRIDGE:
VoiceE|--------------------------------------------------------------------|
     H|--------------------------------------------------------------------|
     G|--------------6-----------------------------------------------------|
     D|---8---8----8-----4-----4--4----4----7----4-3--4-7------------------|
     A|--------------------------------------------------------------------|
     E|- Net po - koya  tem, kto de - lal zlo  - o-o -o-o -----------------|
      |                                  |                                 |
Bass G|----------------------------------|---------------------------------|
     D|----------------------------------|---------------------------------|
     A|--------------4-------------------|-8-8-8-8-8-8-8-8-8-8-8-8-8-8-8---|
     E|--6---------------2---------------|-------------------------------9-|
      |                                  |                                 |
Gtr. E|----------------------------------|---------------------------------|
     H|----------------------------------|---------------------------------|
     G|--------------6-------------------|-----------------2-----2---------|
     D|--8-----------6---4---------------|-3---------------3-----3---------|
     A|--8-----------4---4---------------|-3---------------3-----3---------|
     E|--6---------------2---------------|-1---------------1-1-1-1---------|
 
VoiceE|--------------------------------------------------------------------|
     H|--------------------------------------------------------------------|
     G|--------------6-----------------------------------------------------|
     D|--8---8----8------4----4---4----4-----------------------------------|
     A|------------------------------------8-------------------------------|
     E| E - tim lyudyam tak  ne  po - vezlo.  -----------------------------|
      |                                  |                                 |
Bass G|----------------------------------|---------------------------------|
     D|----------------------------------|---------------------------------|
     A|--------------4-------------------|-8-8-8-8-8-8-8-8-8-8-8-8-8-8-8---|
     E|--6---------------2---------------|-------------------------------9-|
      |                                  |                                 |
Gtr. E|----------------------------------|---------------------------------|
     H|----------------------------------|---------------------------------|
     G|--------------6-------------------|-----------------2-----2---------|
     D|--8-----------6---4---------------|-3---------------3------3-----3---------|
     E|--6---------------2---------------|-1---------------1-1-1-1---------|
 
VoiceE|--------------------------------------------------------------------|
     H|--------------------------------------------------------------------|
     G|--------------6-----------------------------------------------------|
     D|---8---8----8-----4------4---4---4--7-----4-3---4-7-----------------|
     A|--------------------------------------------------------------------|
     E|- Net po - koya  tem,  kto  po - taka  -  a-a - a-al ---------------|
      |                                  |                                 |
Bass G|----------------------------------|---------------------------------|
     D|----------------------------------|---------------------------------|
     A|--------------4-------------------|-8-8-8-8-8-8-8-8-8-8-8-8-8-8-8---|
     E|--6---------------2---------------|-------------------------------9-|
      |                                  |                                 |
Gtr. E|----------------------------------|---------------------------------|
     H|----------------------------------|---------------------------------|
     G|--------------6-------------------|-----------------2-----2---------|
     D|--8-----------6---4---------------|-3---------------3-----3---------|
     A|--8-----------4---4---------------|-3---------------3-----3---------|
     E|--6---------------2---------------|-1---------------1-1-1-1---------|
 
VoiceE|-----------------------------------------------------------..
     H|-----------------------------------------------------------..
     G|--------------6--------------------------------------------..
     D|--8----8---8-------4----4-4----4---------------------------..
     A|-----------------------------------8-----------------------..
     E| Tem,kto znal i vsyo - taki   molchal  --------------------..
      |                                  |                        
Gtr. E|----------------------------------|---------D--D--D--------..
     H|----------------------------------|---------R--R--R--------..
     G|--------------6-------------------|---------U--U--U--------..
     D|--8-----------6---4---------------|-8-------M--M--M-11--10-..
     A|--8-----------4---4---------------|-8---------------11--10-..
     E|--6---------------2---------------|-6---------------9---8--..
                                         TO RIFF 1  ----------------->
(4:35 - 4:56) Repeat RIFF 1
(4:56 - 5:18)
SOLO (*2 times):
Gtr.1E||-------------------------------------------------|-------------------------------------------------|
     H||-------------11----14~~~-------------------------|-------------11----13~~~-------------------------|
     G||-------11----------------------------------------|-------11----------------------------------------|
     D||-13----------------------------------------------|-13----------------------------------------------|
     A||-------------------------------------------------|-------------------------------------------------|
     E||-------------------------------------------------|-------------------------------------------------|
      ||                                                 |                                                 |
Gtr.2E||-------------------------------------------------|-------------------------------------------------|
     H||-------------------------------------------------|-------------------------------------------------|
     G||-------8--------8--------8--------8--------------|-------8--------8--------8--------8--------------|
     D||-------8--------8--------8--------8--------------|-------8--------8--------8--------8--------------|
     A||-6--6--6--6--6--6--6--6--6--6--6--6--------------|-6--6--6--6--6--6--6--6--6--6--6--6--------------|
     E||-------------------------------------------------|-------------------------------------------------|
 
Gtr.1E|-------------------------------------------------|-------------------------------------------------||
     H|-------------11----12~~~-------------------------|-------------11----------------------------------||
     G|-------11----------------------------------------|-------11----------------------------------------||
     D|-13----------------------------------------------|-13----------------13----------------------------||
     A|-------------------------------------------------|-------------------------------------------------||
     E|-------------------------------------------------|-------------------------------------------------||
      |                                                 |                                                 ||
Gtr.2E|-------------------------------------------------|-------------------------------------------------||
     H|-------------------------------------------------|-------------------------------------------------||
     G|-------8--------8--------8--------8--------------|-------8--------8--------8--------8--------------||
     D|-------8--------8--------8--------8--------------|-------8--------8--------8--------8--------------||
     A|-6--6--6--6--6--6--6--6--6--6--6--6--------------|-6--6--6--6--6--6--6--6--6--6--6--6--------------||
     E|-------------------------------------------------|-------------------------------------------------||

in the end of the last measure of the solo, bass plays: 
G|--------  -> to CHORUS   -------...
D|------4-3-----|-----------------...
A|--4-6-----6-4-|-2---------------...
E|--------------|-----------------...

(5:18 - 5:50) CHORUS ("Kazhdyy tam, kazhdyy tam za vsyo" *3 times), and then:
(5:50 - 6:05)

alternative ending of Chorus + OUTRO:
        3.--------------------------------------------------------------->
        Kazh  - dyy  sam                   otvecha - yet  tam.
Gtr. E|----------------------------------|----------------------------------13-|
     H|----------------------------------|------------ritenuto-----------12----|
     G|----------------------------------|-------------------------10/11-------|
     D|--4-----------------------4-------|-------------------------------------|
     A|--2-----------------------2-------|-6-----------------------------------|
     E|----------------------------------|-4-----------------------------------|
Gtr. E|-(13)-----------------------------|-------------------------------------|
     H|----------------------------------|-------------------------------------|
     G|----------------------------------|-------------------------------------|
     D|--8-------------------------------|-------------------------------------|
     A|--6-------------------------------|-------------------------------------|
     E|----------------------------------|-------------------------------------|

 






                       


Copyright © Музыкальный Портал на Куличках 1999-2007      music@kulichki.com


    Stolica.ru    
Реклама в Интернет