Stolica.ru Реклама на Куличках     

Аккорды песен:
A B C D E F G H I J K L M N O P Q R S T U V W X Y Z
АБВГДЕЖЗИКЛМНОПРСТУФХЦЧШЩЭЮЯ





Тексты песен :     A B C D E F G H I J K L M N O P Q R S T U V W X Y Z #

ПОЛНЫЙ СПИСОК ПЕСЕН ГРУППЫ




-->



АРИЯ   
Без тебя
--------
tabbed by Vladimir Gelfand ("Little Prince")

Tempo: 78 quarternotes per minute
(0:01 - 0:25)
INTRO:
E|--1---------------0---------------|-------------------------0-------|
H|------3-------3-------3-------3---|-3---------------2-----------2---|
G|----------2---------------2-------|-----0---------------------------|
D|--0-------------------------------|---------------------------------|
A|------------------3---------------|-1-----------1---0---0-----------|
E|----------------------------------|---------3-----------------------|


E|--1---------------0---------------|---------------------------------|
H|------3-------3-------3-------3---|-3-------5-------3-------3-------|
G|----------2---------------2-------|-----0-------0-------2-------2---|
D|--0-------------------------------|-----------------0---0-----------|
A|------------------3---------------|-1-------3-----------------------|
E|----------------------------------|---------------------------------|


E|--1---0-----------0---------------|---------0---------------0-------|
H|----------3-----------3-------3---|-2-----------2-------2-----------|
G|--------------2-----------0-------|-----2-----------2---------------|
D|--0-------------------------------|---------------------------------|
A|------3-----------3---1-----------|-0-------------------------------|
E|----------------------------------|---------------------------------|


E|--1---0-----------0---------------|---------0-----------0-----------|
H|----------3-----------3-------3---|-2-----------2-----------2-------|
G|--------------2-----------0-------|-----2-----------2-----------2---|
D|--0-------------------------------|---------------------------------|
A|------3-----------3---1-----------|-0-------------------------------|
E|----------------------------------|---------------------------------|

(0:25 - 0:50)
VERSE 1:

   Sno - va       bro - shen     v   okna   lunnyy  svet
E|--1---------------0---------------|-------------------------0-------|
H|------3-------3-------3-------3---|-3---------------2-----------2---|
G|----------2---------------2-------|-----0---------------------------|
D|--0-------------------------------|---------------------------------|
A|------------------3---------------|-1-----------1---0---0-----------|
E|----------------------------------|---------3-----------------------|

   Dom    moy      son - nyy         sereb - rom    odet.
E|--1---------------0---------------|---------------------------------|
H|------3-------3-------3-------3---|-3-------5-------3-------3-------|
G|----------2---------------2-------|-----0-------0-------2-------2---|
D|--0-------------------------------|-----------------0---0-----------|
A|------------------3---------------|-1-------3-----------------------|
E|----------------------------------|---------------------------------|

    A - a           a - a             a - a - a
E|--1---0-----------0---------------|---------0---------------0-------|
H|----------3-----------3-------3---|-2-----------2-------2-------2---|
G|--------------2-----------0-------|-----2-----------2---------------|
D|--0-------------------------------|---------------------------------|
A|------3-----------3---1-----------|-0-------------------------------|
E|----------------------------------|---------------------------------|

    A - a           a - a             a - a - a
E|--1---0-----------0---------------|---------0---------------0-------|
H|----------3-----------3-------3---|-2-----------2-------2-------2---|
G|--------------2-----------0-------|-----2-----------2---------------|
D|--0-------------------------------|---------------------------------|
A|------3-----------3---1-----------|-0-------------------------------|
E|----------------------------------|---------------------------------|

(0:50 - 1:14) VERSE 2
(1:15 - 1:39)


CHORUS:
VoiceE|--------------------------------------------------------------------|
     H|--------------------------------------------------------------------|
     G|--------------------------------------------------------------------|
     D|----4-----------4------5------7-----5-------------------------------|
     A|--------------------------------------------------------------------|
     E|- Vsyo,        vsyo   kak  vche  - ra  -----------------------------|
      |                                  |                                 |
Gtr. E|--2-------------------------------|---------------------------------|
     H|--3-------------------------------|---------------------------------|
     G|--2-------------------------------|---------------------------------|
     D|--0-------------------------------|-5-------------------------------|
     A|----------------------------------|-5-------------------------------|
     E|----------------------------------|-3-------------------------------|
      |                                  |                                 |
Bass G|------------------------------2---|-0-----------0-2-3-------3-2-0-2-|
     D|--4-----------------------4-------|-----------0---------------------|
     A|--------------1-------------------|---------------------------------|
     E|----------------3-2---------------|---------------------------------|
 


VoiceE|--------------------------------------------------------------------|
     H|--------------------------------------------------------------------|
     G|--------------------------------------------------------------------|
     D|----4-----------4------5------7-----5-------------------------------|
     A|--------------------------------------------------------------------|
     E|- Vsyo,        vsyo   kak  vche  - ra  -----------------------------|
      |                                  |                                 | 
Gtr. E|--2-------------------------------|---------------------------------|
     H|--3-------------------------------|---------------------------------|
     G|--2-------------------------------|-----------------3-------5-------|
     D|--0-------------------------------|-5---------------3-------5-------|
     A|----------------------------------|-5---------------1-------3-------|
     E|----------------------------------|-3-------------------------------|
      |                                  |                                 |
Bass G|------------------------------2---|-0-------------------------------|
     D|--4-----------------------4-------|---------------------------------|
     A|--------------1-------------------|---------------------------------|
     E|----------------3-2---------------|---------------------------------|
 


VoiceE|--------------------------------------------------------------------|
     H|--------------------------------------------------------------------|
     G|-----------------------------------------------------5--------------|
     D|----4-----------4------5------7-----8------------8-----------8------|
     A|--------------------------------------------------------------------|
     E|- Vsyo,        vsyo   kak  vche  - ra,          no  bez     te -    |
      |                                  |                                 |
Gtr. E|--2-------------------------------|---------------------------------|
     H|--3-------------------------------|---------------------------------|
     G|--2-------------------------------|---------------------------------|
     D|--0-------------------------------|-5-----------------------------x-|
     A|----------------------------------|-5-----------------------------x-|
     E|----------------------------------|-3-----------------------------x-|
      |                                  |                                 |
Bass G|------------------------------2---|-0-----------0-2-5-------5-3-2\--|
     D|--4-----------------------4-------|-----------0---------------------|
     A|--------------1-------------------|---------------------------------|
     E|----------------3-2---------------|---------------------------------|
 


VoiceE|--------------------------------------------------------------------|
     H|--------------------------------------------------------------------|
     G|--------------------------------------------------------------------|
     D|-----7--------------------------------------------------------------|
     A|--------------------------------------------------------------------|
     E|-  bya....   -------------------------------------------------------|
      |                                  |                                 |
Gtr. E|----------------------------------|---------------------------------|
     H|----------------------------------|---------------------------------|
     G|----------------------------------|---------------------------------|
     D|-xh7----------5-7-5---------------|-3-----------2-3-2---------------|
     A|-xh7--------------5---------------|-3---------------0---------------|
     E|-xh5--------------3---------------|-1---------------0---------------|
      |                                  |                                 |
Bass G|----------------------------------|---------------------------------|
     D|----------------------------------|-3-----------2-3-----------------|
     A|--0-------------------------------|-----------------?---------------|
     E|----------------------------------|---------------------------------|


(1:39 - 2:04) VERSE 3
(2:04 - 2:28)CHORUS
(2:29 - 3:17)

SOLO:


SynthE||---------------------------------|---------------------------------|
     H||-6-------8-------10------11--10--|-8-----------6---5---------------|
     G||-7-------9-------10------12--10--|-9-----------7---6---------------|
     D||---------------------------------|---------------------------------|
     A||---------------------------------|---------------------------------|
     E||---------------------------------|---------------------------------|

SynthE|----------------------------------|---------------------------------|
     H|--6-------8-------10------11--10--|-8-----------6---5---------------|
     G|--7-------9-------10------12--10--|-9-----------7---6---------------|
     D|----------------------------------|---------------------------------|
     A|----------------------------------|---------------------------------|
     E|----------------------------------|---------------------------------|

SynthE|----------------------------------|---------------------------------|
     H|--6-------5-------3---------------|---------------------------------|
     G|--7-------5-------3-----------3---|---------------------------------|
     D|--------------------------5---5---|-7-------------------------------|
     A|--------------------------5-------|-7-------------------------------|
     E|----------------------------------|---------------------------------|

SynthE|----------------------------------|---------------------------------||
     H|--6-------5-------3---------------|---------------------------------||
     G|--7-------5-------3-----------3---|---------------------------------||
     D|--------------------------5---5---|-7-------------------------------||
     A|--------------------------5-------|-7-------------------------------||
     E|----------------------------------|---------------------------------||


(3:18 - 4:07) CHORUS two more times.
(4:07 - 4:19) OUTRO:

Gtr. E|-------------- free time ----------------------------------------------------|
     H|-------------------------------------------------------------------10--------|
     G|--7--------------------------------7---9--9b11r9------------9h10h11----------|
     D|--7----------------------------7-----------------12-9-12--12-----------------|
     A|--5----------0-----5---7---9-------------------------------------------------|
     E|-----------------------------------------------------------------------------|


Gtr. E|--12--12b14r12-10h12p10\9h10p9-----------------------------------------------|
     H|-------------------------------12-10------10-12-10---------------------------|
     G|-------------------------------------11------------11-9-7-9-11-9-7h9p7-6-7-6-|
     D|-----------------------------------------------------------------------------|
     A|-----------------------------------------------------------------------------|
     E|-----------------------------------------------------------------------------|


Gtr. E|-----------------------------------------------------------------------------|
     H|-----------------------------------------------------------------------------|
     G|-----------------------------------------------------------------------------|
     D|--9-----7-----5--------------------------------------------------------------|
     A|--------------------9-----7-----5-----4-----5--------------------------------|
     E|-----------------------------------------------------------------------------|





               Без тебя
               --------
   Tabbed by Eldar Ahmetov 2:5011/60.2


 Riff 1

 4/4

E||--1-----------0-----------|--------------------0-----|
B||-----3-----3-----3-----3--|--3-----------2--------2--|
G||--------2-----------2-----|-----3-----------2--------|
D||--0-----------------------|--------------------------|
A||--------------3-----------|--1--------1--0-----------|
E||--------------------------|--------3-----------------|

 4/4

E||--1-----------0-----------|-------0--------------|
B||-----3-----3-----3-----3--|--3---------3----3----|
G||--------2-----------2-----|----------------------|
D||--0-----------------------|------------0----0----|
A||--------------3-----------|--1----3--------------|
E||--------------------------|----------------------|


Riff 2

  4/4

E||--1--0--------0-----------|-----------0--------0-----|
B||--------1--------3--------|--3--2--------2--------2--|
G||-----------0--------3-----|--------2--------2--------|
D||--0--------------------3--|--------------------------|
A||-----3--------3--1--------|--1--0--------------------|
E||--------------------------|--------------------------|

 4/4

E||--1--0--------0-----------|-----------0--------------||
B||--------1--------3--------|--3--2--------2-----2-----||
G||-----------0--------3-----|--------2--------2-----2--||
D||--0--------------------3--|--------------------------||
A||-----3--------3--1--------|--1--0--------------------||
E||--------------------------|--------------------------||

Интро : Riff 1   Riff 2

Куплет: Riff 1   Riff 2-проигрыш  Riff 1   Riff 2-проигрыш

Снова брошен в окна лунный свет,
Дом мой сонный серебром одет.
Лунной кисти не достич глубин -
Эту бездну знаю я один.


Припев:

     D    G5   Hb   C
E||--2----3----x----x---||
B||--3----3----2----1---||
G||--2----0----3----0---||
D||--0----0----3----2---||
A||-------x----1----2---||
E||-------3----x----3---||

 D           G5
 Все, кaк вчерa

 D           G5 Hb C
 Все, кaк вчерa

 D           G5
 Все, кaк вчерa
             A
 Hо  без тебя


Ревность, жалость, словно заодно,
Птицей скорби падаю на дно.

   припев:


                               Без тебя
                               --------
                       Автор подбора :  Неизвестен

  Dm          C           Hb          A

e:-1----------0----------------------------------|
B:---3-----3-----1-----1--3-----------2----------|
G:------2-----------0--------3-----------2-----2-|
D:-0----------------------------------------2----|
A:------------3-----------1-----3--1--0----------|
E:-----------------------------------------------|
  сновa      брошен      в окнa лунный свет

  Dm            C          Hb C Dm

e:--1-----------0-------------0-1------|
B: ----3-----3-----1-----1-3------3---3|
G:--------2-----------0-------------2--|
D:--0---------------------------0------|
A:--------------3----------1--3--------|
E:-------------------------------------|
   дом мой     сонный      серебром одет

e:--1--0-------0----------------------------|
B:-------1--------3-------3-2--------2------|
G:---------0--------3---------2---2----2----|
D:--0-----------------3---------2--------2--|
A:-----3-------3--1-------1-0---------------|
E:------------------------------------------|
   M-M-M....

  Лунной кисти не достичь глубин
  Эту бездну знaю я один

Припев:

 D           G5
 Все, кaк вчерa             e:--2----3--
                            B:--3----3--    x - глушится
 D           G5 Hb C        G:--2----0--   (0) - по вкусу
 Все, кaк вчерa             D:--0----0--   С в припеве лучше
                            A:-(0)---x--   брaть бaрре
 D           G5             E:-------3--
 Все, кaк вчерa
            A Gm F A
 Hо  без тебя

 Соло

 Гитaрa 2

e:----3--5-6-5------------||--5--3-----3----------||
B:-6------------5--6--5---||--------6-----6--5----||
G:-----------------------o||o--------------------o||
D:-----------------------o||o--------------------o||
A:------------------------||----------------------||
E:------------------------||----------------------||

  Гитaрa 1

e:----0--1-3-1------------||--1--0-----0----------||
B:-3------------2--3--2---||--------3-----3--2----||
G:-----------------------o||o--------------------o||
D:-0---------------------o||o-0------------------o||
A:----3--1------0--1--0---||-----3--1--3--1--0----||
E:------------------------||----------------------||

/*  Если  игрaется  в  одну  гитaру,  то игрaется только пaртия
гитaры (двa рaзa) В две гитaры: снaчaлa гитaрa  1  ведет  соло,
гитaрa  2  игрaет  aккорды  перебором;  Ha  втором повторе соло
гитaрa 2 игрaет то, что выписaно сверху,  дублирует  в  терцию,
Зaкончить песню хорошо aрпеджио в D говоря по-ученому.  */


 






                       


Copyright © Музыкальный Портал на Куличках 1999-2007      music@kulichki.com


    Stolica.ru    
Реклама в Интернет