Stolica.ru Реклама на Куличках     

Аккорды песен:
A B C D E F G H I J K L M N O P Q R S T U V W X Y Z
АБВГДЕЖЗИКЛМНОПРСТУФХЦЧШЩЭЮЯ





Тексты песен :     A B C D E F G H I J K L M N O P Q R S T U V W X Y Z #

ПОЛНЫЙ СПИСОК ПЕСЕН ГРУППЫ




-->




РАЗНОЕ   

            "Маленькiй Кpеольчикъ"  (А.H.Веpтинского)
                     (Романсъ-Аpiэта)
                 ----------------------
              Автор подбора : Неизвестен


1|-------|---------|---------|--------|-------|------------|---------|-------|
2|-------|-3---1---|---------|--------|-------|-4-1--------|-1-1---1-|-3-----|
3|-------|---3---2-|-3-0-2---|--------|-------|-----2----2-|-----3---|-------|
4|-----0-|---------|-------0-|-3----1-|-----1-|------------|---------|-------|
5|-------|---------|---------|--------|-------|------------|---------|-------|
6|-------|---------|---------|--------|-------|------------|---------|-------|

1|-------|---------|---------|--------|-------|--------|-------|
2|-------|-3---1---|---------|--------|-------|1-1---1-|-3-----|
3|-------|---3---2-|-3-0---0-|--------|-----2-|----3---|-------|
4|-----0-|---------|-----0---|-3---1--|-------|--------|-------|
5|-------|---------|---------|--------|-------|--------|-------|
6|-------|---------|---------|--------|-------|--------|-------|

1|-------|---------|-------------|----------|---------|--------|
2|-------|---------|-------------|----------|-4-4-3-2-|-4---3--|
3|-------|-3-2-----|-0-----0-0---|----------|---------|--------|
4|-----0-|-----2-4-|-----------4-|-3-3-3--3-|---------|--------|
5|-------|---------|-------------|----------|---------|--------|
6|-------|---------|-------------|----------|---------|--------|


1|-------|---------|--------|---------|--------|---------|-1-1---1-|
2|-----3-|-3-3-3---|--------|-1-1---1-|-3----3-|-3-3-3-3-|-----4---|
3|-------|-------2-|-2----2-|-----3---|--------|---------|---------|
4|-------|---------|--------|---------|--------|---------|---------|
5|-------|---------|--------|---------|--------|---------|---------|
6|-------|---------|--------|---------|--------|---------|---------|


1|-431-1--1-|---------|--------|---------|-------|
2|----------|-4-1-----|--------|---------|-------|
3|----------|-----2-0-|--------|-----3-2-|-0-----|
4|----------|---------|-4----0-|-2-4-----|-------|
5|----------|---------|--------|---------|-------|
6|----------|---------|--------|---------|-------|


1|--------|---------|---------|---------|---------|-----------|---------|-----|
2|--------|-3---1---|---------|---------|---------|-4-1-------|-1-1-3-4-|-3---|
3|--------|---3---2-|-3-0-2---|-0-------|---------|-----2---2-|---------|-----|
4|------0-|---------|-------4-|---0-3---|-1-----1-|-----------|---------|-----|
5|--------|---------|---------|---------|---------|-----------|---------|-----|
6|--------|---------|---------|---------|---------|-----------|---------|-----|


1|-------|---------|---------|--------|-------|--------|-------|
2|-------|-3---1---|---------|--------|-------|1-1---1-|-3-----|
3|-------|---3---2-|-3-0---0-|--------|-----2-|----3---|-------|
4|-----0-|---------|-----0---|-3---1--|-------|--------|-------|
5|-------|---------|---------|--------|-------|--------|-------|
6|-------|---------|---------|--------|-------|--------|-------|

1|-------|---------|--------|
2|-------|---------|--------|
3|-------|-3-2-----|--------|
4|-----0-|-----2-4-|-0------|
5|-------|---------|--------|
6|-------|---------|--------|

 






                       


Copyright © Музыкальный Портал на Куличках 1999-2007      music@kulichki.com


    Stolica.ru    
Реклама в Интернет