Stolica.ru Реклама на Куличках     

Аккорды песен:
A B C D E F G H I J K L M N O P Q R S T U V W X Y Z
АБВГДЕЖЗИКЛМНОПРСТУФХЦЧШЩЭЮЯ





Тексты песен :     A B C D E F G H I J K L M N O P Q R S T U V W X Y Z #

ПОЛНЫЙ СПИСОК ПЕСЕН ГРУППЫ




-->




РАЗНОЕ   

                     Жаворонок
                    ----------
             Автор подбора : Неизвестен


Acoustic Guitar

E||-----0-----------0--|--0-----1-----------|--------------------|
B||--------3--1--3-----|-----------------1--|--1--------0--------|
G||--------------------|-----2--------2-----|-----0--------0-----|
D||-----------2--------|--0--------3--------|--------0--------0--|
A||--0-----------------|--------------------|--------------------|
E||--------------------|--------------------|--3-----------------|



--0-----------------|--------------------|--------------------|
-----1--------1-----|-----1--0-----0--1--|--1-----3-----3-----|
--------0--------0--|-----------2--------|-----2-----------2--|
-----------2--------|--------------------|-----------3--------|
--3-----------------|--0--------3--------|--------------------|
--------------------|--------------------|--------------------|



--------0--------0--|-----------0--------|-----0-----------0--|
-----0--------0-----|--------1-----1-----|--------3--2--3-----|
--2--------1--------|-----2-----------2--|--------------------|
--------------------|--2-----------------|-----------2--------|
--------------------|--------------------|--0-----------------|
--0-----------------|--------------------|--------------------|



--0-----1-----------|--3-----------------|--0-----------------|
-----------------3--|-----3-----3--------|-----1--------1-----|
-----2--------2-----|--------0-----0-----|--------0--------0--|
--0--------3--------|-----------------0--|-----------2--------|
--------------------|-----------2--------|--3-----------------|
--------------------|--3-----------------|--------------------|



--------------------|--------------------|--0--------4--------|
-----1--0-----0--1--|--1-----3--------3--|--------0--------3--|
-----------2--------|-----2--------2-----|-----1--------4-----|
--------------------|--0--------3--------|--------------------|
--0--------3--------|--------------------|--------------------|
--------------------|--------------------|--0-----------------|



--5------------||
---------------||
---------------||
---------------||
--0------------||
---------------||

 






                       


Copyright © Музыкальный Портал на Куличках 1999-2007      music@kulichki.com


    Stolica.ru    
Реклама в Интернет