:
A B C D E F G H I J K L M N O P Q R S T U V W X Y Z





:     A B C D E F G H I J K L M N O P Q R S T U V W X Y Z #






-->




  
                                 Bpe ea
                                 -----------
            *Transcribed by Mikl Ponomarioff ( 2:5020/1368.32 )
Intro:
   Am                Asus4             Am                Asus4
E|--------12-------|-----------------|--------12-------|-----------------|
B|----------13--15-|-----------------|----------13--15-|-----------------| GU
G|-----14-----14---|-----------------|-----14-----14---|-----------------| IT
D|---14--14--------|-----------------|---14--14--------|-----------------| AR
A|-12--------------|-----------------|-12--------------|-----------------|
   | | | | | | | |   | | | | | | | |   | | | | | | | |   | | | | | | | |
A|-----------------|-----------------|-----------------|-----------------| BA
E|-----------------|-----------------|-5-5---5-5-5---5-|-5-5---5-5-5---5-| SS

Verse:
   Am                Em                F                 Em
E|--------12-------|---------7-------|-----------------|-----------------|
B|----------13--13-|-----------8---8-|--------10-------|--------12-------| GU
G|-----14-----14---|-----9-------9---|-----7-----7---7-|-----9-----9---9-| IT
D|---14--14--------|---9---9---------|---7---7-----7---|---9---9-----9---| AR
A|-12------------x/|-7---------------|-8---------------|-10--------------|
   | | | | | | | |   | | | | | | | |   | | | | | | | |   | | | | | | | |
A|-----------------|-----------------|-----------------|-7-7---7-7-7---7-| BA
E|-5-5---5-5-5---5-|-0-0---0-0-0---0-|-1-1---1-1-1---1/|-----------------| SS

   Dm      Am        Em                F                 Em
E|-----------------|-----7-----------|-----------------|-----------------|
B|---13------------|--------10-------|--------10-------|--------12-------| GU
G|-10--10------14--|-----------9---9-|-----7-----7---7-|-----9-----9---9-| IT
D|-----------14----|---9---------7---|---7---7-----7---|---9---9-----9---| AR
A|---------12----x/|-7---------------|-8---------------|-10--------------|
   | | | | | | | |   | | | | | | | |   | | | | | | | |   | | | | | | | |
A|-5-5---3---------|-7-7---7-7-7\----|-----------------|-7-7---7-7-7---7-| BA
E|---------5-5---5-|-----------------|-1-1---1-1-1---1/|-----------------| SS

   Dm                Am                Em                F
E|------