Реклама на Куличках     

Аккорды песен:
A B C D E F G H I J K L M N O P Q R S T U V W X Y Z
АБВГДЕЖЗИКЛМНОПРСТУФХЦЧШЩЭЮЯ





Тексты песен :     A B C D E F G H I J K L M N O P Q R S T U V W X Y Z #

ПОЛНЫЙ СПИСОК ПЕСЕН ГРУППЫ




-->




Кино   
                              "Грyппа  крови"
                              ---------------
                       Автор подбора :  Неизвестен

 F#m    F#m      -        F#m   F#m6 C#m    C#m7-5   -        -

A---------------------------------- --4-4----4-6-6----6-8-8----8-9-9--
E-2-2----0-2-2----5-2-2----0-2-5-4- 2---------------------------------

>                              F#m7 F#m

Табы для басухи, а выделено сам догадайся что.
F#m F#m7 F#m6 C#m C#m7-5
-2---2----2----4---4-----
-2---5----4----5---7-----
-2---2----2----6---4-----
-4---4----4----6---6-----
-4---4----4----4---4-----
-2---2----2----x---x-----

 Solo
 ----

  F#m         C#m         F#m     C#m F#m         C#m          F#m     C#m
|------------------------9------9---|------------------------9-------9----|
|-----------------7-------10------9-|-----------------7--------10------9--|
|-----------4-6-----6---------------|-----------4-6-----6-----------------|
|-4---4-6-7-------------------------|-4---4-6-7---------------------------|
|-----------------------------------|-------------------------------------|
|-----------------------------------|-------------------------------------|

2 guitars
  F#m         C#m          F#m    C#m  F#m         C#m          F#m     C#m
|-----------------------14-9---14-7-|------------------------14-9----14-7----|
|-----------------7-----14-10--14-9-|------------------7-----14-10---14-9----|
|-----------4-6---6-6---------------|------------4-6---6-6-------------------|
|-4---4-6-7-6-7-----7---------------|--4---4-6-7-6-7-----7-------------------|
|-5---5-8-9-------------------------|--5---5-8-9-----------------------------|
|-----------------------------------|----------------------------------------|


 






                       


Copyright © Музыкальный Портал на Куличках 1999-2007      music@kulichki.com


       
Реклама в Интернет