Реклама на Куличках     

Аккорды песен:
A B C D E F G H I J K L M N O P Q R S T U V W X Y Z
АБВГДЕЖЗИКЛМНОПРСТУФХЦЧШЩЭЮЯ





Тексты песен :     A B C D E F G H I J K L M N O P Q R S T U V W X Y Z #

ПОЛНЫЙ СПИСОК ПЕСЕН ГРУППЫ




-->




Кино   
                                   Печаль
                                   ------
                       Автор подбора :  Неизвестен
 Вступление.
            Hm                                            D
||--2-------2----2-2-.--.---2-------2----2-2-.-.--2-------2---2-2--.-.--||-
||--2-3-5-2-2^3------5--3---2-3-5-2-2^3------5-3--2-3-5-2-2^3------5-3--||-
||.-2-------2---------------2-------2-------------2-------2------------.||-
||.------------------^^^^Стаккато--------------------------------------.||-
||----------------------------------------------------------------------||-
||----------------------------------------------------------------------||-

 Припев.
 Fmd       A           D                          A         D
    Дом стоит, свет горИт                    Из окна видна даль
||----------------------------------------------------------------------|--
||----------------------------------------------------------------------|--
||---------------------7-11-9-11-7-11-9-11-7... и так далее.------------|--
||----------------------------------------------------------------------|--
||----------------------------------------------------------------------|--
||----------------------------------------------------------------------|--

 Соло

    Hm                      A      Hm                      A
||----------------------------------------------------------------------|
||----------------------------------------------------------------------|
||----------------------------------------------------------------------|
||----------------2-2----0-----------------------2-2----0---------------|
||--2-5-5--2-5--2------2----4------2-5-5--2-5--2------2----4--И т.д.----|
||----------------------------------------------------------------------|



 






                       


Copyright © Музыкальный Портал на Куличках 1999-2007      music@kulichki.com


       
Реклама в Интернет