Реклама на Куличках     

Аккорды песен:
A B C D E F G H I J K L M N O P Q R S T U V W X Y Z
АБВГДЕЖЗИКЛМНОПРСТУФХЦЧШЩЭЮЯ





Тексты песен :     A B C D E F G H I J K L M N O P Q R S T U V W X Y Z #

ПОЛНЫЙ СПИСОК ПЕСЕН ГРУППЫ




-->




Кино   
                                  Кукушка
                                  -------
                       Автор подбора :  Неизвестен
Соло:

e||---------0----0-----0--3------------------------0----0-----0--3---|
b||-------1---1------3-------3--1-0-1-0----------1---1------3--------|
g||---2-----------------------------------2-0-2----------------------|
d||------------------------------------------------------------------|
a||------------------------------------------------------------------|
e||------------------------------------------------------------------|

e|---------------3---------------------------------------------------|
b|---3--1-0--1-3-----------------------------------------------------|
g|-------------------------------------------------------------------|
d|-------------------------------------------------------------------|
a|-------------------------------------------------------------------|
E|-------------------------------------------------------------------|

Под припев:

e|----------2-0-----------0-------------2-0-----------2-0----------|
b|------0-------0-----------3-------1-------1-----1-------1--------|
g|--0-----0-----------2-------2--2----2--------2----2--------------|
d|-----------------2----2------------------------------------------|
a|-----------------------------------------------------------------|
e|-----------------------------------------------------------------|



 






                       


Copyright © Музыкальный Портал на Куличках 1999-2007      music@kulichki.com


       
Реклама в Интернет