Stolica.ru Реклама на Куличках     

Аккорды песен:
A B C D E F G H I J K L M N O P Q R S T U V W X Y Z
АБВГДЕЖЗИКЛМНОПРСТУФХЦЧШЩЭЮЯ





Тексты песен :     A B C D E F G H I J K L M N O P Q R S T U V W X Y Z #

ПОЛНЫЙ СПИСОК ПЕСЕН ГРУППЫ




-->




МУЗЫКА ИЗ КИНО и МУЛЬТФИЛЬФМОВ



    СТАРИHHАЯ ФРАHЦУЗСКАЯ ПЕСHЯ
    ---------------------------
     Автор подбора : Неизвестен

     которую пели женихи своим невестам
<Гитара перестраивается на пол-тона ниже (строй Eb-Ab-Db-Gb-B-Eb).
Аккорды при этом ставятся как обычно>

<Вступление (оно же проигрыш)>:
Длительность самых коротких нот - 1/8.

     Em                              Am
1 ||-0-2-3==-3==-0==-----------------0-2-3==-3==-0==-----------------
2 ||-----------------0==============-----------------1==============-

     D                               Em
1 ||-2-3-5==-5==-2==-----------------3-2-0==========-   2 раза
2 ||-----------------3==========-3==-----------------


1:
        Em
В мой старый сад, лан фрэн - лан фра,
   Am
Лети, моя голубка.
      D
Там сны весят, лан фрэн - лан фра,
     G             E7
Hа всех ветвях, голубка.
      Am                 H7
Лан фрэн - лан фра, лан та-ти-та,
      Em            C
Там свеж ручей, трава густа,
    Am           D
Постель из ландышей пуста.
   Em
Лети в мой сад, голубка.

   <Проигрыш>

2:
Мы легкий сон, лан фрэн - лан фра,
Сорвем с тяжелой ветки.
Как сладок он, лан фрэн - лан фра,
Такие сны так редки!
Лан фрэн - лан фра, лан та-ти-та,
Hо слаще сна твои уста.
И роза падает с куста
Тебе на грудь, голубка.

   <Проигрыш>

3:
В моем саду, лан фрэн - лан фра,
Три соловья и ворон,
Они беду, лан фрэн - лан фра,
Любви пророчат хором.
Лан фрэн - лан фра, лан та-ти-та,
Свети, прощальная звезда.
Любовь последняя чиста.
Лети в мой сад, голубка.

   <Проигрыш>

4: <Играется куплет без слов, зато с соляком.
    Соляк, правда, на клавесине, ну да ладно>
Длительность самых коротких нот - 1/4.

       Em              Am              D               G       E7
1||-3-3-------------3-3-------------5-5-------------5-5-7-7-5-7-8==-
2||-----0-0-1-1-0-0-----1-1-1-3-1==-----3-3-5-5-3-3-----------------

       Am        H7       Em       C       Am      D       Em
1||-7-10-8--------------------------------------0-3-2-2---3-2-2---2-0==
2||----------------7-7-7-10-8-8-7-7-------8-1-1---------0-------0------
3||--------9-10-10------------------9==-9------------------------------

   <Проигрыш>

Em              Am              D               G       E7
1||-3-3-------------3-3-------------5-5-------------5-5-7-7-5-7-8==-
2||-----0-0-1-1-0-0-----1-1-1-3-1==-----3-3-5-5-3-3-----------------

       Am        H7       Em       C       Am      H7       Em
1||-7-10-8--------------------------------------0-3-2-2---3-2-2---2-0==
2||----------------7-7-7-10-8-8-7-7-------8-1-1---------0-------0------
3||--------9-10-10------------------9==-9------------------------------
                                                Замедляя

 






                       


Copyright © Музыкальный Портал на Куличках 1999-2007      music@kulichki.com


    Stolica.ru    
Реклама в Интернет