Stolica.ru Реклама на Куличках     

Аккорды песен:
A B C D E F G H I J K L M N O P Q R S T U V W X Y Z
АБВГДЕЖЗИКЛМНОПРСТУФХЦЧШЩЭЮЯ





Тексты песен :     A B C D E F G H I J K L M N O P Q R S T U V W X Y Z #

ПОЛНЫЙ СПИСОК ПЕСЕН ГРУППЫ




-->




МУЗЫКА ИЗ КИНО и МУЛЬТФИЛЬФМОВ



           Госпожа удача
           -------------

Подбор: Ivan.Tihonov @f140.n5080.z2.fidonet.org

Проигрыш между куплетами

   Em                      H7  Em
A|-----3-2-----3-2---2---2---2---2-|
E|-0-3-----0-3-----0---0---1---0---|

   G       D7  G   C       D7  G
D|---0---0-0-----0---------0-----0-|
A|-----------0-----3-2-0-----0-----|
E|-3---3-------3---------3-----3---|

   Am  Em  H   C E7 Am          Em
A|-0-3-2-----2-3----0-3-0-3-0-3---2-|
E|-------3-1-----0--------------0---|

   Am  Em  H7  Em    H7* Em    H7* Em*
D|-------------2-0-------2-0-----|
A|-0-3-2-----2-----3-2-------3-2-|
E|-------3-1---------------------|

Там, где H7* - надо дёрнуть  два раза на восьмую, потом два на
четверть.


 






                       


Copyright © Музыкальный Портал на Куличках 1999-2007      music@kulichki.com


    Stolica.ru    
Реклама в Интернет