Stolica.ru Реклама на Куличках     

Аккорды песен:
A B C D E F G H I J K L M N O P Q R S T U V W X Y Z
АБВГДЕЖЗИКЛМНОПРСТУФХЦЧШЩЭЮЯ





Тексты песен :     A B C D E F G H I J K L M N O P Q R S T U V W X Y Z #

ПОЛНЫЙ СПИСОК ПЕСЕН ГРУППЫ




-->




МУЗЫКА ИЗ КИНО и МУЛЬТФИЛЬФМОВ



               Бpеменские музыканты
               --------------------

 Подбов   : Michael Rybin   ( 2:5030/744.43 )

    C5        Bb5       C5        Eb5
  ||--------------------|------------------||
  ||--------------------|------------------||
  ||o-------------------|-----------8-8---o||
  ||o-10-----10\8------8|\10--------8-8---o||
  ||--10-----10\8------8|\10--------6-6----||
  ||--8------8-\6------6|\8----------------||


||----------------|----------------|---------------5|----------------|
||---------5-5---5|-8p5-----8------|-6-6-6-5-----6--|-8p6----8-------|
||-5-5-5-7-----5--|----------------|---------7-7----|----------------|
||----------------|----------------|----------------|----------------|
||----------------|----------------|----------------|----------------|
||----------------|----------------|----------------|----------------|
                                               ^

Остальное ИМХО почти как в овигинале, судя по памяти.


      Бpеменские музыканты
      --------------------
Подбор: Oleg Kislenko (2:5030/619.17)

    C5        Bb5       C5        Eb5
||--------------------|------------------||
||--------------------|------------------||
||o-------------------|-----------------o||
||o-5-----5-5-3----3-3|-5-----5-5-8-----o||
||--3-----3-3-1----1-1|-3-----3-3-6------||
||--------------------|------------------||


||----------------|----------------|---------------5|----------------|
||---------5-5---5|-8p5-----8------|-6-6-6-5---5-6--|-8p6----8-------|
||-5-5-5-7-----5--|----------------|---------7------|----------------|
||----------------|----------------|----------------|----------------|
||----------------|----------------|----------------|----------------|
||----------------|----------------|----------------|----------------|

|----------------|-5-5-5-7-8----5-|10-10-10-8-7---7-10|-8p7---5--------|
|-5---5-8------5-|----------------|-------------8-----|----------------|
|----------------|----------------|-------------------|----------------|
|----------------|----------------|-------------------|----------------|
|----------------|----------------|-------------------|----------------|
|----------------|----------------|-------------------|----------------|

|-------5------8-|-7----5---7---10|-12p10-8---8-8-7|-8-7-5----------|
|-6---8----------|----------------|----------------|--------------5-|
|----------------|----------------|----------------|------------5---|
|----------------|----------------|----------------|----------7-----|
|----------------|----------------|----------------|----------------|
|----------------|----------------|----------------|----------------|

                  ________________   _________________________________
                 |1.2.              |3.
|----------------|----------------  |----------------|----------------
|--6-6----6-6-5--|----------------  |---------------5|-8-8---8-8--6---
|----------------|-7---7-7---7-7--  |-7h9p7/5h7---4--|----------------
|----------------|----------------  |------------5---|----------------
|----------------|----------------  |----------------|----------------
|----------------|----------------  |----------------|----------------

 ___________________________________________________

|----------------|-5-5------------|----------------||
|-5h6p5/3h5-----5|---------8--6--5|-----------8-8--||
|-------------6--|----------------|-7--7-7----7-7--||
|-----------7----|----------------|----------------||
|----------------|----------------|----------------||
|----------------|----------------|----------------||



 






                       


Copyright © Музыкальный Портал на Куличках 1999-2007      music@kulichki.com


    Stolica.ru    
Реклама в Интернет