Stolica.ru Реклама на Куличках     

Аккорды песен:
A B C D E F G H I J K L M N O P Q R S T U V W X Y Z
АБВГДЕЖЗИКЛМНОПРСТУФХЦЧШЩЭЮЯ





Тексты песен :     A B C D E F G H I J K L M N O P Q R S T U V W X Y Z #

ПОЛНЫЙ СПИСОК ПЕСЕН ГРУППЫ




-->




МУЗЫКА ИЗ КИНО и МУЛЬТФИЛЬФМОВ


                 Подмосковные вечера
                 -------------------

Подбор: Ilya Sherenkov  (2:5005/33.3333)

Normal Fret/Standart Tuning/All Strings Required
-----0-----------0-----------------0-3-3-5---3-1-0-------
---1---1-3---1-0-----3-----------1---------4---------1---
-2---------2---------1---2---2-------------5---------0---
---------0---------2---2---2-------------0---------2-----
-0-----------------------0-------3---------------3-----3-
-----------------0-------------3-------------3-----------

R                                                          в первый раз
-2---4---7-5-0-----------0---1-------3-1-0-------0-------  --0-----
---0---3-------------1-0---3---------------1-3-1-----3---  ----0---
---2---4-----------2---------------2-------2-----------1-  2-----2-
-------------------------0-------0-----------------2-----  --------
-2-------0-------0-------------0---------0---------------  0-------
-----0---------0---------------------------------0-------  --------

во второй

5---------------
----5-----3---0-
--5-------2---1-
----------3---2- и к следующему куплету
0-------2-------
------0-----0---


 






                       


Copyright © Музыкальный Портал на Куличках 1999-2007      music@kulichki.com


    Stolica.ru    
Реклама в Интернет