Stolica.ru     

:
A B C D E F G H I J K L M N O P Q R S T U V W X Y Z





:     A B C D E F G H I J K L M N O P Q R S T U V W X Y Z #






-->




  

                                  
                                 ---------
                 tabbed by Vladimir Gelfand ("Little Prince")

Tempo: moderately fast (158 bpm)

INTRO:

(0:01 - 0:06)

RIFF 1:

Gtr.E|-------------------------|-------------------------|-------------------------|-------------------------|
    H|-15-------15-------15----|-15-------15-------15----|-15-------15-------15----|-15-------15-------15----|
    G|-14-------14-------14----|-15-------15-------15----|-14-------14-------14----|-15-------15-------15----|
    D|----0--0-----0--0-----0--|----0--0-----0--0-----0--|----0--0-----0--0-----0--|----0--0-----0--0-----0--|
    A|----.--.-----.--.-----.--|----.--.-----.--.-----.--|----.--.-----.--.-----.--|----.--.-----.--.-----.--|
    E|-------------------------|-------------------------|-------------------------|-------------------------|
     |                         |                         |                         |                         |
BassG|-------------------------|-------------------------|-------------------------|-------------------------|
    D|-------------------------|-------------------------|-------------------------|-------------------3-/---|
    A|-------------------------|-------------------------|-------------------------|--------------------sl.--|
    E|-------------------------|-------------------------|-------------------------|-------------------------|

(0:06 - 0:12) Play RIFF 1 with bass-guitar joining:

Gtr.E|-------------------------|-------------------------|-------------------------|-------------------------|
    H|-15-------15-------15----|-15-------15-------15----|-15-------15-------15----|-15-------15-------15----|
    G|-14-------14-------14----|-15-------15-------15----|-14-------14-------14----|-15-------15-------15----|
    D|----0--0-----0--0-----0--|----0--0-----0--0-----0--|----0--0-----0--0-----0--|----0--0-----0--0-----0--|
    A|----.--.-----.--.-----.--|----.--.-----.--.-----.--|----.--.-----.--.-----.--|----.--.-----.--.-----.--|
    E|-------------------------|-------------------------|-------------------------|-------------------------|
     |                         |                         |                         |                         |
BassG|-------------------------|-------------------------|-------------------------|-------------------------|
    D|/7--7-----7-----7-----8--|-8--8-----8-----8-----7--|-7--7-----7-----7-----8--|-8--8-----8-----8-----7--|
    A|-------8-----7-----8-----|-------8-----7-----8-----|-------8-----7-----8-----|-------8-----7-----8-----|
    E|-------------------------|-------------------------|-------------------------|-------------------------|

(0:12 - 0:49)

VERSE 1:

VoiceE|-------------------------------------------------------------------------------------------------------|
     H|-------------------------------------------------------------------------------------------------------|
     G|-------------------------------------------------------------------------------------------------------|
     D|-------------------------------------------------------------------------------------------------------|
     A|---5-------7-------8-------7---------5--------3------0-------------------------------------------------|
     E| Zhan  -  na       iz     teh       ko   -   ro  -  lev  ----------------------------------------------|
      |                         |                         |                         |                         |
Gtr. E|-------------------------|-------------------------|-------------------------|-------------------------|
     H|-15-------15-------15----|-15-------15-------15----|-15-------15-------15----|-15-------15-------15----|
     G|-14-------14-------14----|-15-------15-------15----|-14-------14-------14----|-15-------15-------15----|
     D|----0--0-----0--0-----0--|----0--0-----0--0-----0--|----0--0-----0--0-----0--|----0--0-----0--0-----0--|
     A|-------------------------|-------------------------|-------------------------|-------------------------|
     E|-------------------------|-------------------------|-------------------------|-------------------------|
      |                         |                         |                         |                         |
Bass G|-------------------------|-------------------------|-------------------------|-------------------------|
     D|-7--7-----7-----7-----8--|-8--8-----8-----8-----7--|-7--7-----7-----7-----8--|-8--8-----8-----8-----7--|
     A|-------8-----7-----8-----|-------8-----7-----8-----|-------8-----7-----8-----|-------8-----7-----8-----|
     E|-------------------------|-------------------------|-------------------------|-------------------------|
 
VoiceE|-------------------------------------------------------------------------------------------------------|
     H|-------------------------------------------------------------------------------------------------------|
     G|-------------------------------------------------------------------------------------------------------|
     D|----------------------------5--------------------8---7-------------------------------------------------|
     A|----5-------7-------8---------------8------------------------------------------------------------------|
     E| chto     lyu  -  byat     ros  -  kosh'         i  noch'.  -------------------------------------------|
      |                         |                         |                         |                         |
Gtr. E|-------------------------|-------------------------|-------------------------|-------------------------|
     H|-15-------15-------15----|-15-------15-------15----|-17-------17-------17----|-14-------14-------14----|
     G|-14-------14-------14----|-15-------15-------15----|-16-------16-------16----|-14-------14-------14----|
     D|----0--0-----0--0-----0--|----0--0-----0--0-----0--|----0--0-----0--0-----0--|----0--0-----0--0-----0--|
     A|-------------------------|-------------------------|-------------------------|-------------------------|
     E|-------------------------|-------------------------|-------------------------|-------------------------|
      |                         |                         |                         |                         |
Bass G|-------------------------|-------------------------|-------------------------|-------------------------|
     D|-7--7-----7-----7-----8--|-8--8-----8-----8--------|-------------5-----------|-------------5-----------|
     A|-------8-----7-----8-----|-------8-----7-----8--7--|(7)-7--8--7-----7--8--4--|(4)-4--7--4-----4--7--5--|
     E|-------------------------|-------------------------|-------------------------|-------------------------|
 
VoiceE|-------------------------------------------------------------------------------------------------------|
     H|-------------------------------------------------------------------------------------------------------|
     G|-------------------------------------------------------------------------------------------------------|
     D|-------------------------------------------------------------------------------------------------------|
     A|--5--------7--------8------7---------5-------3-------0-------------------------------------------------|
     E| Tol'  -  ko      tza  -  rit'      na      zem  -  le  -----------------------------------------------|
      |                         |                         |                         |                         |
Gtr. E|-------------------------|-------------------------|-------------------------|-------------------------|
     H|-15-------15-------15----|-15-------15-------15----|-15-------15-------15----|-15-------15-------15----|
     G|-14-------14-------14----|-15-------15-------15----|-14-------14-------14----|-15-------15-------15----|
     D|----0--0-----0--0-----0--|----0--0-----0--0-----0--|----0--0-----0--0-----0--|----0--0-----0--0-----0--|
     A|-------------------------|-------------------------|-------------------------|-------------------------|
     E|-------------------------|-------------------------|-------------------------|-------------------------|
      |                         |                         |                         |                         |
Bass G|-------------------------|-------------------------|-------------------------|-------------------------|
     D|----7-----7-----7-----8--|-8--8-----8-----8-----7--|-7--7-----7-----7-----8--|-8--8-----8-----8-----7--|
     A|(5)----8-----7-----8-----|-------8-----7-----8-----|-------8-----7-----8-----|-------8-----7-----8-----|
     E|-------------------------|-------------------------|-------------------------|-------------------------|
 
VoiceE|-------------------------------------------------------------------------------------------------------|
     H|-------------------------------------------------------------------------------------------------------|
     G|-------------------------------------------------------------------------------------------------------|
     D|---------------------------5--------------------8----7-------------------------------------------------|
     A|--5--------7-------8-----------------8-----------------------------------------------------------------|
     E|  ey      dol  -  go      ne        suzh   -   de - no  -----------------------------------------------|
      |                         |                         |                         |                         |
Gtr. E|-------------------------|-------------------------|-------------------------|-------------------------|
     H|-15-------15-------15----|-15-------15-------15----|-17-------17-------17----|-14-------14-------14----|
     G|-14-------14-------14----|-15-------15-------15----|-16-------16-------16----|-14-------14-------14----|
     D|----0--0-----0--0-----0--|----0--0-----0--0-----0--|----0--0-----0--0-----0--|----0--0-----0--0-----0--|
     A|-------------------------|-------------------------|-------------------------|-------------------------|
     E|-------------------------|-------------------------|-------------------------|-------------------------|
      |                         |                         |                         |                         |
Bass G|-------------------------|-------------------------|-------------------------|-------------------------|
     D|-7--7-----7-----7-----8--|-8--8-----8-----8--------|-------------5-----------|-------------5-----------|
     A|-------8-----7-----8-----|-------8-----7-----8--7--|(7)-7--8--7-----7--8--4--|(4)-4--7--4--------------|
     E|-------------------------|-------------------------|-------------------------|-------------------------|
 
VoiceE|-------------------------------------------------------------------------------------------------------|
     H|-------------------------------------------------------------------------------------------------------|
     G|-------------------------------------------------------------------------------------------------------|
     D|--3---------------2---3----5------------------3----5-7----7------5------5------3----------3-----2------|
     A|-------------------------------------------------------------------------------------------------------|
     E| Nu,              a  po - ka,                kak  bogi - nyu    na     ru  -  kah,       no - syat   --|
      |                         |                         |                         |                         |
Gtr. E|-------------------------|-------------------------|-------------------------|-------------------------|
     H|-------------------------|-------------------------|-------------------------|-------------------------|
     G|-------------------------|-------------------------|-------------------------|-------------------------|
     D|--3----------------------|-5-----------------------|-7-----------5-----------|-3-----------------------|
     A|--1----------------------|-3-----------------------|-8-----------7-----------|-5-----------------------|
     E|-------------------------|-------------------------|-------------------------|-------------------------|
 
VoiceE|-------------------------------------------------------------------------------------------------------|
     H|-------------------------------------------------------------------------------------------------------|
     G|-------------------------------------------------------------------------------------------------------|
     D|-------------8---------------------------------------------------7-------------------------------------|
     A|---5-------------------------------------------------4-------------------------------------------------|
     E| Zhan   -   nu,                                    Zhan    -    nu...            ----------------------|
      |                         |                         |                         |                         |
Gtr. E|-------------------------|-------------------------|-------------------------|-------------------------|
     H|-------------------------|-------------------------|-------------------------|-------------------------|
     G|-------------------------|-------------------------|-------------------------|-------------------------|
     D|--0----------------------|-(0)---------------------|--2----------------------|-------------------------|
     A|--1----------------------|-(1)---------------------|--0----------------------|-------------------------|
     E|-------------------------|-------------------------|-------------------------|-------------------------|

(0:49 - 1:26) VERSE 2

(1:26 - 2:02)

CHORUS:

VoiceE|-------------------------------------------------------------------------------------------------------|
     H|-------------------------------------------------------------------------------------------------------|
     G|-------------------------------------------------------------------------------------------------------|
     D|----7----------------------5------------3-----------3--------------------------------------------------|
     A|-------------------------------------------------------------------------------------------------------|
     E|- Svooooooooooooo    -    dit       s   u    -     ma    ----------------------------------------------|
      |                         |                         |                         |                         |
Gtr. E|-------------------------|-------------------------|-------------------------|-------------------------|
     H|-------------------------|-------------------------|-------------------------|-------------------------|
     G|-------------------------|-------------------------|-------------------------|-------------------------|
     D|-3--------3--------3-----|-3--------3--------3-----|-3--------3--------3-----|-3--------3--------3-----|
     A|-1--1--1--1--1--1--1--1--|-1--1--1--1--1--1--1--1--|-3--3--3--3--3--3--3--3--|-3--3--3--3--3--3--3--3--|
     E|-------------------------|-------------------------|-------------------------|-------------------------|
      |                         |                         |                         |                         |
Bass G|-------------------------|-------------------------|-------------------------|-------------------------|
     D|-------------------------|-------------------------|-------------------------|-7--7--7--5--5--5--------|
     A|-------------------------|-------------------------|-8--8--8--8--8--8--8--8--|-------------------8--8--|
     E|-6--6--6--6--6--6--6--6--|-6--6--6--6--6--6--6--6--|-------------------------|-------------------------|
 
VoiceE|-------------------------------------------------------------------------------------------------------|
     H|-------------------------------------------------------------------------------------------------------|
     G|-------------------------------------------------------------------------------------------------------|
     D|---5-----------------------3-----------2---------------------------------------------------------------|
     A|-----------------------------------------------------5-------------------------------------------------|
     E|- uuuuuuuuuuuuuuuu    -   lit    -    sa            roz       -----------------------------------------|
      |                         |                         |                         |                         |
Gtr. E|-------------------------|-------------------------|-------------------------|-------------------------|
     H|-------------------------|-------------------------|-------------------------|-------------------------|
     G|-------------------------|-------------------------|-------------------------|-------------------------|
     D|-5--------5--------5-----|-5--------5--------5-----|-7--------7--------7-----|-7--------7--------7-----|
     A|-3--3--3--3--3--3--3--3--|-3--3--3--3--3--3--3--3--|-5--5--5--5--5--5--5--5--|-5--5--5--5--5--5--5--5--|
     E|-------------------------|-------------------------|-------------------------|-------------------------|
      |                         |                         |                         |                         |
Bass G|-------------------------|-------------------------|-------------------------|-------------------------|
     D|-------------------------|-------------------------|-------------------------|-------------------------|
     A|-------------------------|-------------------------|-5--5--5--5--5--5--5--5--|-8--8--8--7--7--7--5--0--|
     E|-8--8--8--8--8--8--8--8--|-8--8--8--8--8--8--8--8--|-------------------------|-------------------------|
 
VoiceE|-------------------------------------------------------------------------------------------------------|
     H|-------------------------------------------------------------------------------------------------------|
     G|-------------------------------------------------------------------------------------------------------|
     D|----7----------------------5-----------3-------------3-------------------------------------------------|
     A|-------------------------------------------------------------------------------------------------------|
     E| Spryach'                svoy          ob     -     man   ---------------------------------------------|
      |                         |                         |                         |                         |
Gtr. E|-------------------------|-------------------------|-------------------------|-------------------------|
     H|-------------------------|-------------------------|-------------------------|-------------------------|
     G|-------------------------|-------------------------|-------------------------|-------------------------|
     D|-3--------3--------3-----|-3--------3--------3-----|-3--------3--------3-----|-3--------3--------3-----|
     A|-1--1--1--1--1--1--1--1--|-1--1--1--1--1--1--1--1--|-3--3--3--3--3--3--3--3--|-3--3--3--3--3--3--3--3--|
     E|-------------------------|-------------------------|-------------------------|-------------------------|
      |                         |                         |                         |                         |
Bass G|-------------------------|-------------------------|-------------------------|-------------------------|
     D|-------------------------|-------------------------|-------------------------|-7--7--7--5--5--5--------|
     A|-------------------------|-------------------------|-8--8--8--8--8--8--8--8--|-------------------8--8--|
     E|-6--6--6--6--6--6--6--6--|-6--6--6--6--6--6--6--6--|-------------------------|-------------------------|
 
VoiceE|-------------------------------------------------------------------------------------------------------|
     H|-------------------------------------------------------------------------------------------------------|
     G|-------------------------------------------------------------------------------------------------------|
     D|---5-----------------------3-----------2------------------------7-----------------------------5----7---|
     A|-----------------------------------------------------5-------------------------------------------------|
     E|- uuuuuuuuuuuuuu     -    lit    -    sa          slyo    -     oz.                          Ya  lyub- |
      |                         |                         |                         |                         |
Gtr. E|-------------------------|-------------------------|-------------------------|-------------------------|
     H|-------------------------|-------------------------|-------------------------|-------------------------|
     G|-------------------------|-------------------------|-------------------------|-------------------------|
     D|-5--------5--------5-----|-5--------5--------5-----|-7--------7--------7-----|-7--------7--------------|
     A|-3--3--3--3--3--3--3--3--|-3--3--3--3--3--3--3--3--|-5--5--5--5--5--5--5--5--|-5--5--5--5--5--5--5p0---|
     E|-------------------------|-------------------------|-------------------------|-------------------------|
      |                         |                         |                         |                         |
Bass G|-------------------------|-------------------------|-------------------------|-------------------------|
     D|-------------------------|-------------------------|-------------------------|-------------------------|
     A|-------------------------|-------------------------|-5--5--5--5--5--5--5--5--|-8--8--8--7--7--7--5--0--|
     E|-8--8--8--8--8--8--8--8--|-8--8--8--8--8--8--8--8--|-------------------------|-------------------------|
 
VoiceE|-------------------------------------------------------------------------------------------------------|
     H|-------------------------------------------------------------------------------------------------------|
     G|-------------------------------------------------------------------------------------------------------|
     D|---8-----------------------------------7-----5---3---2-------------------------------------------------|
     A|----------------------------------------------------------------------------------------------5----3---|
     E| lyu                                   i    ne -na -viiiiiiiiiiiiiiiiiiiiiiiiiiiiiiiiiiii - zhu   te-  |
      |                         |                         |                         |                         |
Gtr. E|-------------------------|-------------------------|-------------------------|-------------------------|
     H|-------------------------|-------------------------|-------------------------|-------------------------|
     G|-------------------------|-------------------------|-------------------------|-------------------------|
     D|--8----------------------|-------------x--x--x--x--|-7-----------------------|-------------x--x--x--x--|
     A|--8----------------------|-------------x--x--x--x--|-7-----------------------|-------------x--x--x--x--|
     E|--6----------------------|-------------x--x--x--x--|-5-----------------------|-------------x--x--x--x--|
      |                         |                         |                         |                         |
Bass G|-------------------------|-------------------------|-------------------------|-------------------------|
     D|--8-------------------0--|-8--10--8--7-------------|-7-----------------------|-------------------------|
     A|-------------------------|-------------10----------|----------------0--7--8--|-7-----------------------|
     E|-------------------------|-------------------------|-------------------------|-------------------------|
 
VoiceE|-------------------------------------------------------------------------------------------------------|
     H|-------------------------------------------------------------------------------------------------------|
     G|-------------------------------------------------------------------------------------------------------|
     D|---------------2-----3-----2---------------------------------------2-----3-----2-----------------------|
     A|----5------------------------------------5-----3-----5-------------------------------------------------|
     E|- bya    -     a  -  a  -  a,            o  -  o  -  o -           o  -  o  -  o  ---------------------|
      |                         |                         |                         |                         |
Gtr. E|-------------------------|-------------------------|-------------------------|-------------------------|
     H|-------------------------|-------------------------|-------------------------|-------------------------|
     G|-------------------------|-------------------------|-------------------------|-------------------------|
     D|--3----------------------|-5-----------------------|-------------------------|-------------3--2--------|
     A|--1----------------------|-3-----------------------|-5-----------------------|-5-----3--5--------3--5--|
     E|-------------------------|-------------------------|-6--6--6--6--6--6--6--6--|----6--------------------|
(2:02 - 2:08) RIFF 1
(2:08 - 2:45) VERSE 3:
...
       Bros'        i   uydi,       pust'  rastayet  slov - no  dym         oblik
Gtr. E|------------------|------------------|------------------|-------------------|
     H|------------------|------------------|------------------|-------------------| 
     G|------------------|------------------|------------------|-------------------|
     D|--3---------------|-5----------------|--7-------5-------|-3-----------------|
     A|--1---------------|-3----------------|--8-------7-------|-5-----------------|
     E|------------------|------------------|------------------|-------------------|
 
       Zhan  -  ny,                        Zhan   -   ny...          
Gtr. E|------------------|------------------|------------------|-1--------0--------|
     H|------------------|------------------|------------------|-------------------|
     G|----------3-------|-(3)--------------|----------2-------|-------------------|
     D|--0-------3-------|-(3)--------------|------------------|-------------------|
     A|--1---------------|-(1)--------------|-0----------------|-------------------|
     E|------------------|------------------|------------------|-------------------|
 

(2:45 - 3:20) CHORUS

SOLO:

(3:20 - 3:45)

PART A: ("T" is right-hand tapping)

       T     T      T     T     T      T     T      T      T      T     T     T      T     T      T     T    
LeadE|-17p13p10-17p13p10-17p13p10-17p13p10-17p13p10-17p13p10-17p13p10-17p13p10-|-17p13p10-18p13p10-17p13p10-18p13p10-17p13p10-18p13p10-17p13p10-18p13p10-|
    H|---------------------------------------------------------------------|---------------------------------------------------------------------|
    G|---------------------------------------------------------------------|---------------------------------------------------------------------|
    D|---------------------------------------------------------------------|---------------------------------------------------------------------|
    A|---------------------------------------------------------------------|---------------------------------------------------------------------|
    E|---------------------------------------------------------------------|---------------------------------------------------------------------|

LeadE|- T ----- T ----- T ------ T ------ T ----- T ------ T ------------|-------------------------------------------------|
    H|-17p13p10-17p13p10-17p13p10-17p13p10-17p13p10-17p13p10-17p13p10-------|-------------------------------------------------|
    G|-------------------------------------------------------------------|-12-bend to-13-----------------------12-12^12^12^|
    D|--------------------------------------------------------------12---|----------------------------------12-------------|
    A|-------------------------------------------------------------------|-- slow bend ------------------------- gradual --|
    E|-------------------------------------------------------------------|- (half-tone) ----------------------- bend(full)-|

LeadE|-------------------------------------------------|-------------------------------------------------|
    H|-------------------------------------------------|-------------------------------------------------|
    G|(12)b14-12^12^12^12^12^12^12^12^12^12^-12^12^12^12^-12-12-12-12-12-12bend14~~~~~~~~~~~~~~~~~~~~~~~~|
    D|-- tremolo picking -------------------- gradual -|-------------------------------------------------|
    A|-- of the bent note ------------------- release -|-------------------------------------------------|
    E|-------------------------------------------------|-------------------------------------------------|

LeadE|-------------------------------------------------|-------------------------------------------------|
    H|-------------------------------------------------|----------------------------------------- A.H. --|
    G|------0h2h3h5p3p2-----2--------------------------|------------------------------------------<7>----|
    D|-------------------5-----5--3--2--5--------------|-------------------------8-----7-----7-----------|
    A|-------------------------------------0-----5-----|-8-p5--5-----7-p5--5-----------------------------|
    E|-------------------------------------------------|-------------------------------------------------|

LeadE|-------------------------------------------------|-------------------------------------------------|
    H|-------------------------------------------------|-------------------------------------13----12~~~~|
    G|-(<7>)-------------------------------10----9-----|-(9)---------12----10----------------------------|
    D|----------------------------------7--------------|----------7-----------------------12-------------|
    A|-------------------------------------------------|-------------------------------------------------|
    E|-------------------------------------------------|-------------------------------------------------|

LeadE|----------------------------------13-------------|----------13-------------------------------------|
    H|-(12)~~~~~~~~~~~~~~~-----------------13----12----|-(12)--------12----11----------------------------|
    G|-------------------------------------------------|--------------------------------------12p10p9----|
    D|-------------------------------------------------|-------------------------------------------------|
    A|-------------------------------------------------|-------------------------------------------------|
    E|-------------------------------------------------|-------------------------------------------------|

LeadE|---------------------------------------------------|-----------------------------------------------------------------|
    H|-------------------------------------------13p12p10-------------- trill ---------------------------------------------|
    G|---------------------------------------------------|-12------12p10h12p10h12------  trill  ---------------------------|
    D|-10----12------------------------------------------|--------------------------10h12p10h12p10---12p10-----------------|
    A|---------------------------------------------------|---------------------------------------------------10------------|
    E|---------------------------------------------------|-----------------------------------------------------------------|

LeadE|-------------12----------13----------15----------|---------15--17-(18)h20--20bend22----------------|
    H|-------12-13----13-10-------15-12-------17-13----|-17--18------------------------------------------|
    G|-13----------------------------------------------|-------------------------------------------------|
    D|-------------------------------------------------|-------------------------------------------------|
    A|-------------------------------------------------|-------------------------------------------------|
    E|-------------------------------------------------|-------------------------------------------------|

(3:45 - 4:10)

PART B OF THE SOLO:

LeadE|-------------------------------------------------|-------------------------------------------------|
    H|-------------------------15h17p15----------------|-------------------------------------------------|
    G|-17bend19-----------------------(19)rel17--p15---|-\14---------------------------------------------|
    D|-------- hold bend --------- release bend -------|------------17~~~~~~~~~~~~-----------------------|
    A|-------------------------------------------------|-------------------------------------------------|
    E|-------------------------------------------------|-------------------------------------------------|
     |                                                 |                                                 |
BassG|-------------------------3-----------------------|-------------------------------------------------|
    D|---------------------3-----------3---------------|-------------------------------------------------|
    A|-1-----------------------------------1-----------|-3-----------------------------------------------|
    E|-------------------------------------------------|-------------------------------------------------|
 
LeadE|-------------------13----------------12----------|-------10----------------------------------------|
    H|-------------10----------------10----------------|-------------------------------------------------|
    G|-10----12----------------12----------------12----|-10----------10----------------------------------|
    D|-------------------------------------------------|-------------------------------------------------|
    A|-------------------------------------------------|-------------------------------------------------|
    E|-------------------------------------------------|-------------------------------------------------|
     |                                                 |                                                 |
BassG|-------------------------------------------------|-------------------------------------------------|
    D|-3-----5-----------3-----2-----------------------|-------------------------------------------------|
    A|-------------------------------5-----3-----------|-5-----------------------------------------------|
    E|-------------------------------------------------|-------------------------------------------------|
 
LeadE|-18bend20----------18----15----------------------|-------------------------------------------------|
    H|-------------------------------15----------------|-------------------------------------------------|
    G|-------------------------------------15----14~~~~|(14)~~~~~~~~~~~~~~~~~~---------------------------|
    D|-------------------------------------------------|-------------------------------------------------|
    A|-------------------------------------------------|-------------------------------------------------|
    E|-------------------------------------------------|-------------------------------------------------|
     |                                                 |                                                 |
BassG|-------------------------------------------------|-------------------------------------------------|
    D|-5-----------------------------------5-----7-----|-8-----------------------------------------------|
    A|-------------------------------5-----------------|-------------------------------------------------|
    E|-------------------------------------------------|-------------------------------------------------|
 
LeadE|-----------------15--17--18----17p15-------------|-----------------------------------------15--17--|
    H|-----14h15-17--18----------------------17~~~---15--|-14~~~~~~~~~-------------14--15--17--18----------|
    G|-15h16---------------------------------------------|-------------------------------------------------|
    D|-------------------------------------------------|-------------------------------------------------|
    A|-------------------------------------------------|-------------------------------------------------|
    E|-------------------------------------------------|-------------------------------------------------|
     |                                                 |                                                 |
BassG|-------------------------------------6-----7-----|-9-----------10----------9------9h10-7-----------|
    D|-7-----------------------------7-----------------|------------------------------------------10-----|
    A|-------------------------------------------------|-------------------------------------------------|
    E|-------------------------------------------------|-------------------------------------------------|
 
LeadE|-18--------------17--18--20--------------18--20--|-22----------------------22~~~~~~~~~~~~~~~-------|
    H|-----17--18--20--------------18--20--22----------|-------------------------------------------------|
    G|-------------------------------------------------|-------------------------------------------------|
    D|-------------------------------------------------|-------------------------------------------------|
    A|-------------------------------------------------|-------------------------------------------------|
    E|-------------------------------------------------|-------------------------------------------------|
     |                                                 |                                                 |
BassG|-------------------------------------------------|-------------------------------------------------|
    D|-8-----------------------------------------------|-10----------------------------------------------|
    A|-------------------------------------------------|-------------------------------------------------|
    E|-------------------------------------------------|-------------------------------------------------|
 
LeadE|-------------------------------------------------|-------------------------------------------------|
    H|-------------------------------------------------|-------------------------------------------------|
    G|-10bend12rel10-----10----9-----------------------|-------------------------10-----9----------------|
    D|-------------------------------12----10----------|-12----------------------------------12----10----|
    A|-------------------------------------------------|-------------------------------------------------|
    E|-------------------------------------------------|-------------------------------------------------|
     |                                                 |                                                 |
BassG|-10----12----------10----9-----------------------|-------------------------------------------------|
    D|-------------------------------12----10----------|-12----------------------------------------------|
    A|-------------------------------------------------|-------------------------------------------------|
    E|-------------------------------------------------|-------------------------------------------------|
 
LeadE|-------------------------------------------------|-------------------------10----------------------|
    H|-------------------------------------------------|----------10h11----13----------------------------|
    G|-------------------------------------------------|----10/12----------------------------------------|
    D|--8----------------------------------------------|-------------------------------------------------|
    A|-------------------------------------------------|-------------------------------------------------|
    E|-------------------------------------------------|---------------------------------------------10--|
     |                                                 |                                                 |
BassG|-------------------------------------12----14----|-15----------------------------------------------|
    D|-------------------------------12----------------|-------------------------------------------------|
    A|-13----------------------------------------------|-------------------------------------------------|
    E|-------------------------------------------------|-------------------------------------------------|
 
LeadE|-------------------------------------------------|-------------------------------------------------|
    H|-------------------------------------------------|----14-------------------------------------------|
    G|----------------------------------------12-------|-15----14-12-------------------------------------|
    D|-------------------------------------15----14-12-|-------------15----14-12-11~~~~~~~~~~~~~---------|
    A|-------------10h13-10---/13h16-13----------------|-------------------------------------------------|
    E|-9-----9-----------------------------------------|-------------------------------------------------|
     |                                                 |                                                 |
BassG|-------------------------------------------------|-------------------------------------------------|
    D|-------------------------------------------------|-------------------------------------------------|
    A|-12----------------------------------------------|-------------------------------------------------|
    E|-------------------------------------------------|-------------------------------------------------|

(4:10 - 4:28)

PART C OF THE SOLO:

Gtr.1E|-------------------------|-------------------------|-------------------------|-------------------------|
     H|-15-------15-------15----|-15-------15-------15----|-15-------15-------15----|-15-------15-------15----|
     G|-14-------14-------14----|-15-------15-------15----|-14-------14-------14----|-15-------15-------15----|
     D|----0--0-----0--0-----0--|----0--0-----0--0-----0--|----0--0-----0--0-----0--|----0--0-----0--0-----0--|
     A|-------------------------|-------------------------|-------------------------|-------------------------|
     E|-------------------------|-------------------------|-------------------------|-------------------------|
      |                         |                         |                         |                         |
Lead E|-------------------------|-------------------------|-17----------------------|-------------------------|
     H|-------------------------|-------------------------|--------------13---------|-(13)--------------------|
     G|-12-bendto-14------------|-(12)---12bend14rel12p10-|--------------14---------|-(14)--------------------|
     D|-12----------------------|-(12)--------------------|-------------------------|-------------------------|
     A|----- slow bend ---------|-------------------------|-------------------------|-------------------------|
     E|-------------------------|-------------------------|-------------------------|-------------------------|
 
Gtr.1E|-------------------------|-------------------------|-------------------------|-------------------------|
     H|-15-------15-------15----|-15-------15-------15----|-15-------15-------15----|-15-------15-------15----|
     G|-14-------14-------14----|-15-------15-------15----|-14-------14-------14----|-15-------15-------15----|
     D|----0--0-----0--0-----0--|----0--0-----0--0-----0--|----0--0-----0--0-----0--|----0--0-----0--0-----0--|
     A|-------------------------|-------------------------|-------------------------|-------------------------|
     E|-------------------------|-------------------------|-------------------------|-------------------------|
      |                         |                         |                         |                         |
Bass G|-19----------------17----|-15----------------15----|-14----------------14----|-12----------------------|
     D|----------19-------------|----------15-------------|----------15-------------|----------15-------14----|
     A|-------------------------|-------------------------|-------------------------|-------------------------|
     E|-------------------------|-------------------------|-------------------------|-------------------------|
 
Gtr.1E|-------------------------|-------------------------|-------------------------|-------------------------|
     H|-15-------15-------15----|-15-------15-------15----|-15-------15-------15----|-15-------15-------15----|
     G|-14-------14-------14----|-15-------15-------15----|-14-------14-------14----|-15-------15-------15----|
     D|----0--0-----0--0-----0--|----0--0-----0--0-----0--|----0--0-----0--0-----0--|----0--0-----0--0-----0--|
     A|-------------------------|-------------------------|-------------------------|-------------------------|
     E|-------------------------|-------------------------|-------------------------|-------------------------|
      |                         |                         |                         |                         |
Bass G|-------------------------|-------------------------|-------------------------|-------------------------|
     D|-12----------------------|-(12)--------------10-12-|-(12)--------------------|-------------------10-12-|
     A|-------------------------|----------------10h12------|-------------------------|----------------10h12------|
     E|-------------------------|-------------------------|-------------------------|-------------------------|
(4:28 - 5:05) VERSE 4
(5:05 - 5:53) CHORUS, slows down in the end.

                                  
                                 ---------
                         :  

  (a  a  ):

 -7----7----7--|-7----7----7--|-7----7----7--|-7----7----7--|
 -7----7----7--|-8----8----8--|-7----7----7--|-8----8----8--|
 --------------|--------------|--------------|--------------|
 --9-9--9-9--9-|--9-9--9-9--9-|--9-9--9-9--9-|--9-9--9-9--9-|
 --------------|--------------|--------------|--------------|
 --------------|--------------|--------------|--------------|


 -7----7----7--|-7----7----7--|-11----11----11--|-8------8------8---|
 -7----7----7--|-8----8----8--|-11----11----11--|-9------9------9---|
 --------------|--------------|---8-8---8-8---8-|-------------------|
 --9-9--9-9--9-|--9-9--9-9--9-|-----------------|--10-10--10-10--10-|
 --------------|--------------|-----------------|-------------------|
 --------------|--------------|-----------------|-------------------|

  K:

  Hm         G           Hm  G  Hm          G           F?   F#   F? F#
  a--a    ---,    -- -   ,
  - a- a -       -    ---.

 ----------------------------------------------------3--2----|
 -0----2--3--2----0-------------0---2---3---5---3------------|
 --------------------2---------------------------------------|
 ------------------------4-----------------------------------|
 ------------------------------------------------------------|
 ------------------------------------------------------------|


  G        A          D      F#     Hm  D  A   Em  G    F#
  H a --a a ---  a --a - a-,  a-.

 -3------|-0------0-|-2--2-|-2--0-|----------|-----3--|-----2-|
 -0--2-3-|-2--3-----|-3----|-2----|-3---3--2-|-0------|-2-----|
 -0------|-2--------|-2----|-3----|-4--------|-0------|-3-----|
 --------|-2--------|-0----|------|-4--------|-2------|-4-----|
 --------|----------|------|-4----|-2--------|-2------|-4-----|
 -3------|----------|------|------|----------|--------|-------|


  Hm         G           Hm  G  Hm          G           F?   F#   F? F#
    a-a-    a,    a--a-- a  -a, 
  ---  - -a    a-a  a      a.

 -----------------------------------------------------3--2----|
 -0----2--3--2----0-------------0---2---3---5----3------------|
 --------------------2----------------------------------------|
 ------------------------4------------------------------------|
 -------------------------------------------------------------|
 -------------------------------------------------------------|


  G        A          D      F#     Hm    D   A     Em  G    F#
    ---  --a   --  , -  a-a,  a-a.

 -3------|-0----0--|-2---2-|-2--0-|---------------|-----3--|-----2-|
 -0--2-3-|-2--3----|-3-----|-2----|-3-----3---2---|-0------|-2-----|
 -0------|-2-------|-2-----|-3----|-4-------------|-0------|-3-----|
 --------|-2-------|-0-----|------|-4-------------|-2------|-4-----|
 --------|---------|-------|-4----|-2-------------|-2------|-4-----|
 -3------|---------|-------|------|---------------|--------|-------|

   :

  D                  A        F#        Em
  ...          ...       ... ...a

 -2----------------|-0----------------|------------------|------------------|
 ------------------|----------3-------|-3----------------|------------------|
 -0-0-0-0--0-0-0-0-|-0-0-0-0--0-0-0-0-|------------------|------------------|
 -0-0-0-0--0-0-0-0-|-0-0-0-0--0-0-0-0-|-0-0-0-0--0-0-0-0-|-4-4-4-3--3-3-0-0-|
 ------------------|------------------|-0-0-0-0--0-0-0-0-|-0-0-0-0--0-0-0-0-|
 ------------------|------------------|------------------|------------------|


  A                  F#       A         Hm
  ...            ...... ...a        

 -0----------------|------------------|------------------|------------------|
 ------------------|-3--------2-------|-0----------------|------------------|
 -2-2-2-2--2-2-2-2-|-2-2-2-2--2-2-2-2-|-4-4-4-4--4-4-4-4-|-4-4-4-4--4-4-4-4-|
 -2-2-2-2--2-2-2-2-|-2-2-2-2--2-2-2-2-|-4-4-4-4--4-4-4-4-|-4-4-4-4--4-4-4-4-|
 ------------------|------------------|------------------|-5-5-5-4--4-4-2-2-|
 ------------------|------------------|------------------|------------------|


  D                  A        F#        Em
                    ...  ...a

 -2----------------|-0----------------|------------------|------------------|
 ------------------|----------3-------|-3----------------|------------------|
 -0-0-0-0--0-0-0-0-|-0-0-0-0--0-0-0-0-|------------------|------------------|
 -0-0-0-0--0-0-0-0-|-0-0-0-0--0-0-0-0-|-0-0-0-0--0-0-0-0-|-4-4-4-3--3-3-0-0-|
 ------------------|------------------|-0-0-0-0--0-0-0-0-|-0-0-0-0--0-0-0-0-|
 ------------------|------------------|------------------|------------------|


  A                  F#       A         Hm
  ...            ...... ...a        

 -0----------------|------------------|----------2-------|
 ------------------|-3--------2-------|-0----------------|
 -2-2-2-2--2-2-2-2-|-2-2-2-2--2-2-2-2-|-4-4-4-4--4-4-4-4-|
 -2-2-2-2--2-2-2-2-|-2-2-2-2--2-2-2-2-|-4-4-4-4--4-4-4-4-|
 ------------------|------------------|------------------|
 ------------------|------------------|------------------|


         G           A         G        A          G        A   Hm
    -   -a--- -  ......           .........

 -0--2---2-|-3-2--0--0-|-------2-|------0-|--------2-|------0-|-----|
 --------0-|---------2-|-3--2--0-|-2-3--2-|-2-0----0-|-2-3--2-|-3---|
 -4--4---0-|---------2-|-------0-|------2-|-----2--0-|------2-|-4---|
 -4--4-----|---------2-|---------|------2-|----------|------2-|-4---|
 ----------|-----------|---------|--------|----------|--------|-2---|
 --------2-|-----------|-------2-|--------|--------2-|--------|-----|

   a a a a .

   Hm         F#         F?
 |||||| I   |||||| I   |||||| I
 oo|||o     o|||oo     o|o|oo
 ||||o|     |||o||     ||||||
 ||oo||     |oo|||     |o|o||
 ||||||     ||||||     ||||||
 






                       


Copyright © 1999-2007      music@kulichki.com


    Stolica.ru