Stolica.ru Реклама на Куличках     

Аккорды песен:
A B C D E F G H I J K L M N O P Q R S T U V W X Y Z
АБВГДЕЖЗИКЛМНОПРСТУФХЦЧШЩЭЮЯ





Тексты песен :     A B C D E F G H I J K L M N O P Q R S T U V W X Y Z #

ПОЛНЫЙ СПИСОК ПЕСЕН ГРУППЫ




-->




АРИЯ   

                                   Тореро
                                   ------
                tabbed by Vladimir Gelfand ("Little Prince")

Tuning: HALF-STEP DOWN.
INTRO:
(0:01 - 0:10)
I'm not sure in this chords.
E|------------------|---------------0--|------------------|
H|--------------4---|------------3-----|---------------3--|
G|-----------6------|------------------|------------4-----|
D|--------0---------|---------1--------|---------0--------|
A|-----2------------|------3-----------|------3-----------|
E|--3---------------|---4--------------|---1--------------|

(0:10 - 0:13)
RIFF 1:
Gtr.2E|---------------------------------|
     H|---------------------------------|
     G|-7-7-7-7---7---7-----------------|
     D|-7-7-7-7---7---7-----------------|
     A|-5-5-5-5---5---5-----------------|
     E|---------------------------------|
(0:13 - 0:23)
RIFF 2:
Bass G|-7-----9-----10----7-----9---10--|-5-----7-----9-----5-----7---9---|
     D|---0-0---0-0---0-0---0-0---0---0-|---0-0---0-0---0-0---0-0---0---0-|
     A|---------------------------------|---------------------------------|
     E|---------------------------------|---------------------------------|
Bass G|-3-----5-----7-----3-----5---7---|-2-----3-----2-----3-----2--/5---|
     D|---0-0---0-0---0-0---0-0---0---0-|---0-0---0-0---0-0---0-0---0---0-|
     A|---------------------------------|---------------------------------|
     E|---------------------------------|---------------------------------|
(0:23 - 0:33)
RIFF 3:(play together with Riff 2)
Gtr.1E|---------------------------------|---------------------------------|
     H|---------------------------------|---------------------------------|
     G|---------------------------------|---------------------------------|
     D|-------------------7-------------|-5---------------------------5---|
     A|-5-----7-----8-------------------|-------7-------------------------|
     E|---------------------------------|-------------8-------------------|
      |                                 |                                 |
Bass G|-7-----9-----10----7-----9---10--|-5-----7-----9-----5-----7---9---|
     D|---0-0---0-0---0-0---0-0---0---0-|---0-0---0-0---0-0---0-0---0---0-|
     A|---------------------------------|---------------------------------|
     E|---------------------------------|---------------------------------|
 
Gtr.1E|---------------------------------|---------------------------------|
     H|---------------------------------|---------------------------------|
     G|---------------------------------|---------------------------------|
     D|---------------------------------|---------------------------------|
     A|-8-----5---------------------5-8-|-7-------------------------------|
     E|-------------6-------------6-----|-------8-----5-------------------|
      |                                 |                                 |
Bass G|-3-----5-----7-----3-----5---7---|-2-----3-----2-----3-----2--/5---|
     D|---0-0---0-0---0-0---0-0---0---0-|---0-0---0-0---0-0---0-0---0---0-|
     A|---------------------------------|---------------------------------|
     E|---------------------------------|---------------------------------|
                                
(0:33 - 0:43)
RIFF 4:
    
Gtr.1E|---------------------------------|---------------------------------|
     H|---------------6-5---------------|---------------------------------|
     G|-------------------------7-------|-(7)\----------------------------|
     D|-8---------5-8-------------------|---------------------------------|
     A|---------------------------------|---------------------------------|
     E|---------------------------------|---------------------------------|
      |                                 |                                 |
Gtr.2E|---------------------------------|---------------------------------|
     H|---------------------------------|---------------------------------|
     G|--------------10-9-------7-------|---------------------------------|
     D|-8------------10-9-------7-------|-----7-----7-----7-----7-----7---|
     A|-8-------------8-7-------5-------|-----7-----7-----7-----7-----7---|
     E|-6-------------------------------|-5-5-5-5-5-5-5-5-5-5-5-5-5-5-5-5-|
 
Gtr.1E|---------------------------------|---------------------------------|
     H|---------------6-5---------------|---------------------------------|
     G|-------------------------7\------|-/14-----------------------------|
     D|-8---------5-8-------------------|---------------------------------|
     A|---------------------------------|---------------------------------|
     E|---------------------------------|---------------------------------|
      |                                 |                                 |
Gtr.2E|---------------------------------|---------------------------------|
     H|---------------------------------|---------------------------------|
     G|--------------10-9-------7-------|---------------------------------|
     D|-8------------10-9-------7-------|-----7-----7-----7---------------|
     A|-8-------------8-7-------5-------|-----7-----7-----7---------------|
     E|-6-------------------------------|-5-5-5-5-5-5-5-5-5---------------|
   
(0:44 - 0:49)
Gtr.2E|---------------------------------|---------------------------------|
     H|---------------------------------|---------------------------------| 
     G|---------------------------------|---------------------------------| 
     D|---------------------------------|---------------------------------| 
     A|-5-5-5-5-5-5-5-5-5-5-5-5-5-5-5-5-|-5-5-5-5-5-5-5-5-5-5-5-5-5-5-5-5-|
     E|-.-.-.-.-.-.-.-.-.-.-.-.-.-.-.-.-|-.-.-.-.-.-.-.-.-.-.-.-.-.-.-.-.-|
(0:49 - 1:09)
VERSE 1:
VoiceE|-------------------------------------------------------------------|
     H|-------------------------------------------------------------------| 
     G|-------------------------------------------------------------------| 
     D|-------------------7--------------5-----------------------------5--|
     A|-5-----7-----8---------------------------7-----3-------------------|
     E| Ey,  to  - re  - ro,           zhizn'  kak   mig,              o- |
      |                                 |                                 |
Gtr.1E|---------------------------------|---------------------------------|
     H|---------------------------------|---------------------------------| 
     G|-7-------------------------------|-5-------------------------------| 
     D|-7-------------------------------|-5-------------------------------|
     A|---------------------------------|---------------------------------|
     E|---------------------------------|---------------------------------|
      |                                 |                                 |
Gtr.2E|---------------------------------|---------------------------------|
     H|---------------------------------|---------------------------------|
     G|---------------------------------|---------------------------------|
     D|---------------------------------|---------------------------------|
     A|-5-5-5-5-5-5-5-5-5-5-5-5-5-5-5-5-|-3-3-3-3-3-3-3-3-3-3-3-3-3-3-3-3-|
     E|-.-.-.-.-.-.-.-.-.-.-.-.-.-.-.-.-|-.-.-.-.-.-.-.-.-.-.-.-.-.-.-.-.-|
 
VoiceE|-------------------------------------------------------------------|
     H|-------------------------------------------------------------------| 
     G|-------------------------------------------------------------------| 
     D|-------------------------------------------------------------------|
     A|--8-----5-----1-----------------8-7----8-7--0---7------------------|
     E|pyat' zvu - chit              truby  prizyvnyy zov.    ------------|
      |                                 |                                 |
Gtr.1E|---------------------------------|---------------------------------|
     H|---------------------------------|---------------------------------| 
     G|---------------------------------|---------------------------------| 
     D|-8-------------------------------|-7-----------------7-----7-------|
     A|-8-------------------------------|-7-----------------7-----7-------|
     E|---------------------------------|-----------------5-5---5-5-------|
      |                                 |                                 |
Gtr.2E|---------------------------------|---------------------------------|
     H|---------------------------------|---------------------------------|
     G|---------------------------------|---------------------------------|
     D|---------------------------------|---------------------------------|
     A|---------------------------------|---------------------------------|
     E|-6-6-6-6-6-6-6-6-6-6-6-6-6-6-6-6-|-5-5-5-5-5-5-5-5-5-5-5-5-5-5-5-5-|
        . . . . . . . . . . . . . . . .   . . . . . . . . . . . . . . . .
 
VoiceE|-------------------------------------------------------------------|
     H|-------------------------------------------------------------------| 
     G|-----------------------------------5-------------------------------| 
     D|-------------------7-----------------------8-7--5---------------7--|
     A|-5-----7-----8-----------------------------------------------------|
     E| Ey,  to  - re  - ro,             ty       ili byk?            ka- |
      |                                 |                                 |
Gtr.1E|---------------------------------|---------------------------------|
     H|---------------------------------|---------------------------------| 
     G|-7-------------------------------|-5-------------------------------| 
     D|-7-------------------------------|-5-------------------------------|
     A|---------------------------------|---------------------------------|
     E|---------------------------------|---------------------------------|
      |                                 |                                 |
Gtr.2E|---------------------------------|---------------------------------|
     H|---------------------------------|---------------------------------|
     G|---------------------------------|---------------------------------|
     D|---------------------------------|---------------------------------|
     A|-5-5-5-5-5-5-5-5-5-5-5-5-5-5-5-5-|-3-3-3-3-3-3-3-3-3-3-3-3-3-3-3-3-|
     E|-.-.-.-.-.-.-.-.-.-.-.-.-.-.-.-.-|-.-.-.-.-.-.-.-.-.-.-.-.-.-.-.-.-|
 
VoiceE|-------------------------------------------------------------------|
     H|-------------------------------------------------------------------| 
     G|-------------------------------------------------------------------| 
     D|---8----5---7----8-------7---5----7--------------------------------|
     A|-------------------------------------------------------------------|
     E| cha - yutsya  cha  -  shi  ve - sov.      ------------------------|
      |                                 |                                 |
Gtr.1E|---------------------------------|---------------------------------|
     H|---------------------------------|---------------------------------| 
     G|---------------------------------|---------------------------------| 
     D|-8-------------------------------|-7-----------------7-----7-------|
     A|-8-------------------------------|-7-----------------7-----7-------|
     E|---------------------------------|-----------------5-5---5-5-------|
      |                                 |                                 |
Gtr.2E|---------------------------------|---------------------------------|
     H|---------------------------------|---------------------------------|
     G|---------------------------------|---------------------------------|
     D|---------------------------------|---------------------------------|
     A|---------------------------------|---------------------------------|
     E|-6-6-6-6-6-6-6-6-6-6-6-6-6-6-6-6-|-5-5-5-5-5-5-5-5-5-5-5-5-5-5-5-5-|
        . . . . . . . . . . . . . . . .   . . . . . . . . . . . . . . . .
(1:09 - 1:19)       
BRIDGE:
        Bog        hranit      te   -   bya
Gtr.1E|---------------------------------|---------------------------------|
     H|---------------6-5---------------|---------------------------------|
     G|-------------------------7-------|-(7)\----------------------------|
     D|-8---------5-8-------------------|---------------------------------|
     A|---------------------------------|---------------------------------|
     E|---------------------------------|---------------------------------|
      |                                 |                                 |
Gtr.2E|---------------------------------|---------------------------------|
     H|---------------------------------|---------------------------------|
     G|--------------10-9-------7-------|---------------------------------|
     D|-8------------10-9-------7-------|-----7-----7-----7-----7-----7---|
     A|-8-------------8-7-------5-------|-----7-----7-----7-----7-----7---|
     E|-6-------------------------------|-5-5-5-5-5-5-5-5-5-5-5-5-5-5-5-5-|
 
       Smert'      schadit       te   -   bya
Gtr.1E|---------------------------------|---------------------------------|
     H|---------------6-5---------------|---------------------------------|
     G|-------------------------7\------|-/14-----------------------------|
     D|-8---------5-8-------------------|---------------------------------|
     A|---------------------------------|---------------------------------|
     E|---------------------------------|---------------------------------|
      |                                 |                                 |
Gtr.2E|---------------------------------|---------------------------------|
     H|---------------------------------|---------------------------------|
     G|--------------10-9-------7-------|---------------------------------|
     D|-8------------10-9-------7-------|-----7-----7-----7---------------|
     A|-8-------------8-7-------5-------|-----7-----7-----7---------------|
     E|-6-------------------------------|-5-5-5-5-5-5-5-5-5---------------|
(1:20 - 1:55)
CHORUS:
VoiceE|-------------------------------------------------------------------|
     H|-------------------------------------------------------------------| 
     G|-------------------------------------------------------------------| 
     D|---7--------5-----------5-----7----7-------------------------------|
     A|-----------------8-------------------------------------------------|
     E|- Neeeee - ba   be  -  lyy  pla - tok   ---------------------------|
      |                                 |                                 |
Gtr.1E|---------------------------------|---------------------------------|
     H|---------------------------------|---------------------------------|   
     G|-----7-------7-------7-------7---|-----5---------------------------|  
     D|-----7-------7-------7-------7---|-----5---------------------------|
     A|---------------------------------|---------------------------------|
     E|---------------------------------|---------------------------------|
      |                                 |                                 |
Gtr.2E|---------------------------------|---------------------------------|
     H|---------------------------------|---------------------------------| 
     G|-7-------7-------7-------7-------|---------------------------------| 
     D|-7-------7-------7-------7-------|-10-------------10-9--10-9--10-9-|
     A|-5-------5-------5-------5-------|-10--------------8-7---8-7---8-7-|
     E|---------------------------------|-8-------------------------------|
 
VoiceE|-------------------------------------------------------------------|
     H|-------------------------------------------------------------------| 
     G|-------------------------------------------------------------------| 
     D|---7---------5-----------5----7----7-------------------------------|
     A|-------------------8-----------------------------------------------|
     E|- krov'      i  zhyol - tyy  pe - sok.  ---------------------------|
      |                                 |                                 |
Gtr.1E|---------------------------------|---------------------------------|
     H|---------------------------------|---------------------------------|   
     G|---------------------------------|---------------------------------|  
     D|-----8-------8-------8-------8---|-----7---------------------------|
     A|-----8-------8-------8-------8---|-----7---------------------------|
     E|---------------------------------|---------------------------------|
      |                                 |                                 |
Gtr.2E|---------------------------------|---------------------------------|
     H|---------------------------------|---------------------------------| 
     G|---------------------------------|---------------------------------| 
     D|-8-------8-------8-------8-------|-7---------------7-6---7-6---7-6-|
     A|-8-------8-------8-------8-------|-7---------------5-4---5-4---5-4-|
     E|-6-------6-------6-------6-------|-5-------------------------------|
 
VoiceE|-------------------------------------------------------------------|
     H|-------------------------------------------------------------------| 
     G|-------------------------------------------------------------------| 
     D|-----8-------7---5---------5-----------8---------7-5------7----8---|
     A|------------------------8------------------------------------------|
     E|-  krik      otcha  -  yanya,         byk  --  zhiva  -  ya   mi - |
      |                                 |                                 |
Gtr.1E|---------------------------------|---------------------------------|
     H|---------------------------------|---------------------------------|   
     G|---------------------------------|---------------------------------|  
     D|---------------------------------|--8------------------------------|
     A|---------------------------------|--8------------------------------|
     E|---------------------------------|---------------------------------|
      |                                 |                                 |
Gtr.2E|---------------------------------|---------------------------------|
     H|---------------------------------|---------------------------------|
     G|---------------------------------|---------------------------------|
     D|---------------------------------|---------------------------------|
     A|---------------------------------|---------------------------------|
     E|-3-3-3-3-3-3-3-3-3-3-3-3-3-3-3-3-|-6-6-6-6-6-6-6-6-6-6-6-6-6-6-6-6-|
        . . . . . . . . . . . . . . . .   . . . . . . . . . . . . . . . .
 
VoiceE|-------------------------------------------------------------------|
     H|-------------------------------------------------------------------| 
     G|-------------------------------------------------------------------| 
     D|----7--------------------------------7---------5-----------5--7----|
     A|--------------------------------------------------8----------------|
     E|- shen'.                            Pod       vostor  -  zhennyy --|
      |                                 |                                 |
Gtr.1E|---------------------------------|---------------------------------|
     H|---------------------------------|---------------------------------|
     G|---------------------------------|-----7-------7-------7-------7---|
     D|---------------------------------|-----7-------7-------7-------7---|
     A|-5-4-0-7-5-0-10-7-0-12------------|---------------------------------|
     E|---------------------------------|---------------------------------|
      |                                 |                                 |
Gtr.2E|---------------------------------|---------------------------------|
     H|---------------------------------|---------------------------------| 
     G|---------------------------------|-7-------7-------7-------7-------|
     D|---------------------------------|-7-------7-------7-------7-------|
     A|---------------------------------|-5-------5-------5-------5-------|
     E|---------------------------------|---------------------------------|
 
         voy                              ty          igra  - yesh'  sud'- 
Gtr.1E|---------------------------------|---------------------------------|
     H|---------------------------------|---------------------------------|   
     G|-----5---------------------------|---------------------------------|    
     D|-----5---------------------------|-----8-------8-------8-------8---|
     A|---------------------------------|-----8-------8-------8-------8---|
     E|---------------------------------|---------------------------------|
      |                                 |                                 |
Gtr.2E|---------------------------------|---------------------------------|
     H|---------------------------------|---------------------------------| 
     G|---------------------------------|---------------------------------|  
     D|-10-------------10-9--10-9--10-9-|-8-------8-------8-------8-------|
     A|-10--------------8-7---8-7---8-7-|-8-------8-------8-------8-------|
     E|-8-------------------------------|-6-------6-------6-------6-------|
 
        boy.                             Pust'      ne  zna  -  yet  nik -
Gtr.1E|---------------------------------|---------------------------------|
     H|---------------------------------|---------------------------------|   
     G|---------------------------------|---------------------------------|  
     D|-----7---------------------------|---------------------------------|
     A|-----7---------------------------|---------------------------------|
     E|---------------------------------|---------------------------------|
      |                                 |                                 |
Gtr.2E|---------------------------------|---------------------------------|
     H|---------------------------------|---------------------------------|
     G|---------------------------------|---------------------------------|
     D|-7---------------7-6---7-6---7-6-|---------------------------------|
     A|-7---------------5-4---5-4---5-4-|---------------------------------|
     E|-5-------------------------------|-3-3-3-3-3-3-3-3-3-3-3-3-3-3-3-3-|
                                          . . . . . . . . . . . . . . . .
 
        to,    chto  tvorit - sya  v  dushe.
Gtr.1E|---------------------------------|---------------------------------|
     H|---------------------------------|---------------------------------|   
     G|---------------------------------|---------------------------------|  
     D|--8------------------------------|---------------------------------|
     A|--8------------------------------|-5-4-0-7-5-0-10-7-0-12------------|
     E|---------------------------------|---------------------------------|
      |                                 |                                 |
Gtr.2E|---------------------------------|---------------------------------|
     H|---------------------------------|---------------------------------| 
     G|---------------------------------|---------------------------------| 
     D|---------------------------------|---------------------------------|
     A|---------------------------------|---------------------------------| 
     E|-6-6-6-6-6-6-6-6-6-6-6-6-6-6-6-6-|---------------------------------|
        . . . . . . . . . . . . . . . .
(1:55 - 2:15) VERSE 2
(2:16 - 2:26) BRIDGE
(2:26 - 3:02) CHORUS
(3:02 - 3:04) Play RIFF 1
(3:05 - 3:35) Play RIFF 2, RIFF 3, RIFF 4.
(3:35 - 4:36)
SOLO:
Gtr.1E|-------------------------------------------------|------------------------------------------/20----|
     H|--15~~~~~~~~~~-----------------------------------|--13~~~~~~~~~------------------------------------|
     G|-------------------------------------------------|-------------------------------------------------|
     D|-------------------------------------------------|-------------------------------------------------|
     A|-------------------------------------------------|-------------------------------------------------|
     E|-------------------------------------------------|-------------------------------------------------|
      |                                                 |                                                 |
Gtr.2E|-------------------------------------------------|-------------------------------------------------|
     H|-------------------------------------------------|-------------------------------------------------|
     G|-------------------------------------------------|-------------------------------------------------|
     D|-------------------------------------------------|-------------------------------------------------|
     A|-5--5--5--5--5--5--5--5--5--5--5--5--5--5--8--7--|-------------------------------------------8--7--|
     E|-------------------------------------------------|-8--8--8--8--8--8--8--8--8--8--8--8--8--8--------|
 
Gtr.1E|--22---------------------------------------------|-------------------------15----------------------|
     H|-------------------------------------------------|--17---------------18----------------18----17----|
     G|-------------------------------------------------|-------------------------------------------------|
     D|-------------------------------------------------|-------------------------------------------------|
     A|-------------------------------------------------|-------------------------------------------------|
     E|-------------------------------------------------|-------------------------------------------------|
      |                                                 |                                                 |
Gtr.2E|-------------------------------------------------|-------------------------------------------------|
     H|-------------------------------------------------|-------------------------------------------------|
     G|-------------------------------------------------|-------------------------------------------------|
     D|-------------------------------------------------|----------------------------7--------7-----------|
     A|-------------------------------------------8--7--|----------------------------7--------7-----------|
     E|-6--6--6--6--6--6--6--6--6--6--6--6--6--6--------|-5--5--5--5--5--5--5--5--5--5-----5--5-----------|
 
Gtr.1E|-------------------------------------------------|-------------------------------------------------|
     H|-------------------------------------------------|-------------------------------------------------|
     G|--14~~~~~~~~~~-----------------------------------|-------------------------------------10-9--7-----|
     D|-------------------------------------------------|-7h8h10-7-----7-----------------7--10----------10-|
     A|-------------------------------------------------|----------10----10--8-------8--------------------|
     E|-------------------------------------------------|----------------------10-10----------------------|
      |                                                 |                                                 |
Gtr.2E|-------------------------------------------------|-------------------------------------------------|
     H|-------------------------------------------------|-------------------------------------------------|
     G|-------------------------------------------------|-------------------------------------------------|
     D|-------------------------------------------------|-------------------------------------------------|
     A|-5--5--5--5--5--5--5--5--5--5--5--5--5--5--8--7--|-------------------------------------------8--7--|
     E|-------------------------------------------------|-8--8--8--8--8--8--8--8--8--8--8--8--8--8--------|
 
Gtr.1E|-------------------------------------------------|----This measure is played differently in -------|
     H|-------------------------------------------------|------------------------------collections -------|
     G|-7hh9h10-----------------------------------------|-9--9--9--9--9-----9-----9-----------9-----------|
     D|-------------7-----------------------------------|-7--7--7--7--7-----7-----7-----------7-----------|
     A|-------------------------------------------------|-------------------------------------------------|
     E|-------------------------------------------------|-------------------------------------------------|
      |                                                 |                                                 |
Gtr.2E|-------------------------------------------------|-------------------------------------------------|
     H|-------------------------------------------------|-------------------------------------------------|
     G|-------------------------------------------------|-------------------------------------------------|
     D|-------------------------------------------------|----------------------------7--------7-----------|
     A|-------------------------------------------8--7--|----------------------------7--------7-----------|
     E|-6--6--6--6--6--6--6--6--6--6--6--6--6--6--------|-5--5--5--5--5--5--5--5--5--5-----5--5-----------|
 
Gtr.1E|---------------------------------------------------------------------------------|---------------- T - T - T ------|
     H|-T----T----T----T----T----T----T----T----T----T----T----T----T----T----T----T----|-----------------15--17--18------|
     G|-14p10p7-14p10p7-14p10p7-14p10p7-14p10p7-14p10p7-14p10p7-14p10p7-14p10p7-14p10p7-14p10p7-14p10p7-14p10p7-14p7-14p9-14p10-|-10b12~~~~-----------------------|
     D|---------------------------------------------------------------------------------|---------------------------------|
     A|---------------------------------------------------------------------------------|---------------------------------|
     E|---------------------------------------------------------------------------------|---------------------------------|
      |                                                                                 |                                 |
Gtr.2E|---------------------------------------------------------------------------------|---------------------------------|
     H|---------------------------------------------------------------------------------|---------------------------------|
     G|---------------------------------------------------------------------------------|---------------------------------|
     D|---------------------------------------------------------------------------------|---------------------------------|
     A|-5----5----5----5----5----5----5----5----5----5----5----5----5----5----8----7----|-----------------------------8-7-|
     E|---------------------------------------------------------------------------------|-8-8-8-8-8-8-8-8-8-8-8-8-8-8-----|
 
Gtr.1E|---------------------------------------------------------------------------------|---------------- T - T - T ------|
     H|-T----T----T----T----T----T----T----T-----T----T----T----T----T---T---T---T---T--|-----------------14--15--17------|
     G|-12p9p7-12p9p7-12p9p7-12p9p7-12p9p7-12p9p7-12p9p7-12p9p7-12p9p7-12p9p7-12p9p7-12p9p7-12p7-12p5-12p6-12p7-12p7h9~~~~----------------------------|
     D|---------------------------------------------------------------------------------|---------------------------------|
     A|---------------------------------------------------------------------------------|---------------------------------|
     E|---------------------------------------------------------------------------------|---------------------------------|
      |                                                                                 |                                 |
Gtr.2E|---------------------------------------------------------------------------------|---------------------------------|
     H|---------------------------------------------------------------------------------|---------------------------------|
     G|---------------------------------------------------------------------------------|---------------------------------|
     D|---------------------------------------------------------------------------------|-------------------7-----7-------|
     A|-----------------------------------------------------------------------8----7----|-------------------7-----7-------|
     E|-6----6----6----6----6----6----6----6----6----6----6----6----6----6--------------|-5-5-5-5-5-5-5-5-5-5---5-5-------|
 
Gtr.1E|---------------------------------------------------------------------------------|---------------- T - T - T ------|
     H|-T----T----T----T----T----T----T----T----T----T----T----T----T----T----T----T----|-----------------15--17--18------|
     G|-14p10p7-14p10p7-14p10p7-14p10p7-14p10p7-14p10p7-14p10p7-14p10p7-14p10p7-14p10p7-14p10p7-14p10p7-14p10p7-14p7-14p9-14p10-|-10b12~~~~-----------------------|
     D|---------------------------------------------------------------------------------|---------------------------------|
     A|---------------------------------------------------------------------------------|---------------------------------|
     E|---------------------------------------------------------------------------------|---------------------------------|
      |                                                                                 |                                 |
Gtr.2E|---------------------------------------------------------------------------------|---------------------------------|
     H|---------------------------------------------------------------------------------|---------------------------------|
     G|---------------------------------------------------------------------------------|---------------------------------|
     D|---------------------------------------------------------------------------------|---------------------------------|
     A|-5----5----5----5----5----5----5----5----5----5----5----5----5----5----8----7----|-----------------------------8-7-|
     E|---------------------------------------------------------------------------------|-8-8-8-8-8-8-8-8-8-8-8-8-8-8-----|
 
Gtr.1E|---------------------------------------------------------------------------------|---------------------------------|
     H|-T----T----T----T----T----T----T----T-----T----T----T----T----T----T---T---T--T--|---------------------------------|
     G|-12p9p7-12p9p7-12p9p7-12p9p7-12p9p7-12p9p7-12p9p7-12p9p7-12p9p7-12p9p7-12p9p7-12p9p7-12p9p7-12p5-12p6-12p7-12p7h9~~~~----------------------------|
     D|---------------------------------------------------------------------------------|---------------------------------|
     A|---------------------------------------------------------------------------------|---------------------------------|
     E|---------------------------------------------------------------------------------|---------------------------------|
      |                                                                                 |                                 |
Gtr.2E|---------------------------------------------------------------------------------|---------------------------------|
     H|---------------------------------------------------------------------------------|---------------------------------|
     G|---------------------------------------------------------------------------------|---------------------------------|
     D|---------------------------------------------------------------------------------|-------------------7-----7-------|
     A|-----------------------------------------------------------------------8----7----|-------------------7-----7-------|
     E|-6----6----6----6----6----6----6----6----6----6----6----6----6----6--------------|-5-5-5-5-5-5-5-5-5-5---5-5-------|
 
Gtr.1E|-------------------------------------------------|-------------------------------------------------|
Gtr.2H|-11----------10----------11----------10----------|-/14---------11----10---/14----------11----10----|
     G|-12----------10----12----12----------10----12----|-/15---------12----10---/15----------12----10----|
     D|-------------------12----------------------12----|-------------------------------------------------|
     A|-------------------------------------------------|-------------------------------------------------|
     E|-------------------------------------------------|-------------------------------------------------|
 
Gtr.1E|-------------------------------------------------|-17----------------------16~~~~~~~~~~~~----------|
Gtr.2H|-17----------------------18----------17----18----|-18----------------------17~~~~~~~~~~~~----------|
     G|-18----------------------19----------18----19----|-------------------------------------------------|
     D|-------------------------------------------------|-------------------------------------------------|
     A|-------------------------------------------------|-------------------------------------------------|
     E|-------------------------------------------------|-------------------------------------------------|
 
Gtr.1E|-------------------------------------------------|-------------------------------------------------|
Gtr.2H|-11----------10----------11----------10----------|-/14---------11----10---/14----------11----10----|
     G|-12----------10----12----12----------10----12----|-/15---------12----10---/15----------12----10----|
     D|-------------------12----------------------12----|-------------------------------------------------|
     A|-------------------------------------------------|-------------------------------------------------|
     E|-------------------------------------------------|-------------------------------------------------|
 
Gtr.1E|-------------------------------------------------|-17----------------------------------------------|
Gtr.2H|-17----------------------18----------17----18----|-18----------------------------------------------|
     G|-18----------------------19----------18----19----|-------------------------------------------------|
     D|-------------------------------------------------|-------------------------------------------------|
     A|-------------------------------------------------|-------------------------------------------------|
     E|-------------------------------------------------|-------------------------------------------------|
(4:37 - 5:12) CHORUS
(5:12 - 5:25)
OUTRO:
Gtr.1E|---------------------------------- ritenuto -----------------------------------------|
     H|------------------------------------------|------------------------------------------|
     G|------------------------------------------|------------------------------------------|
     D|----11---11---12---12---14---14---15---15-|---17---17---18---18---19~~~~~~~~~~~~~~~~~|
     A|--0----0----0----0----0----0----0----0----|-0----0----0----0----0--------------------|
     E|------------------------------------------|------------------------------------------|
 
Gtr.1E|------------------------------------------|------------------------------------------|
     H|------------------------------------------|------------------------------------------|
     G|------------------------------------------|------------------------------------------|
     D|-(19)~~~~~~~~~~   feedback   -------------|------------------------------------------|
     A|------------------------------------------|------------------------------------------|
     E|------------------------------------------|------------------------------------------|
      |                                          |                                          |
Gtr.2E|------------------------------------------|------------------------------------------|
     H|------------------------------------------|------------------------------------------|
     G|------------------------------------------|-7--7--7--7-----7-----7-------------------|
     D|------------------------------------------|-7--7--7--7-----7-----7-------------------|
     A|------------------------------------------|-5--5--5--5-----5-----5-------------------|
     E|------------------------------------------|------------------------------------------|


                                   Тореро
                                   ------
                       Автор подбора :  Неизвестен

Вступление и проигрыш после кaждого куплетa:
---------------------------------------------------------------------------
---------------------------------------------------------------------------
---------------------------------------------------------------------------
---------------------------------------------------------9-7-----7-5-------
-7-9-10-7-9-10-5-7-9-5-7-9-3-5-7-3-5-7-2-3-2-3-2--7-9-10---0-9-5-0---7-3---
-0-------------0-----------0-----------0----------0------------------------


---------------------------------------------------------------------------
---------------------------------------------------------------------------
--------------------7-6-4---------------------7-6-4---------
- ---2-5-4------5---5---------------------5---5-------9-9-9---
-3-------5-2----7---------9-9-9-10-7-9----7---------7-7-7---
-----------0--------------7-7-7---------------------0-0-0---

        Эй, тореро, жизнь кaк миг
        Опять звучит трубы призывный зов
        Эй, тореро, ты или бык
        Kaчaется чaшa весов
        Бог хрaнит тебя
        Смерть щaдит тебя--a--a
                Hебa белый плaток
                Kровь и желтый песок
                Kрик отчaянья бык живaя мишень
                Под восторженный вой
                Ты игрaешь судьбой
                Пусть не знaет никто что творится в душе

        Эй, тореро, сын вдовы
        Твой крaсный плaщ твой трaурный покров
        Эй, тореро, ты будешь убит
        Под песню мaдридских чaсов
        Бог хрaнит тебя
        Смерть щaдит тебя-a-a
                Hебa белый плaток
                Kровь и желтый песок
                Kрик отчaянья бык живaя мишень
                Под восторженный вой
                Ты игрaешь собой
                Пусть не знaет никто что творится в душе


                  Тореро of "Мания Величия" by Ария
                  ---------------------------------  
                        (подбор by 2:5052/21.25)

Intro
  C#
 -----------------------
 -----------------------
 -----------------------
 -11-11-11-11---11--11--
 -11-11-11-11---11--11--
 -9--9--9--9----9---9---
                    ^let ring

Riff1
  C#              B             A           G#
 -------------------------------------------------------\ listen to
 -------------------------------------------------------| the song and
 -------------------------------------------------------| check
 -------------------------------------------------------| timing
 -------------------------------------------------------| by yourself
 -9-11-12-9-11-12-7-9-11-7-9-11-5-7-9-5-7-9-4-5-4-5-4-5-/

With Riff1
  C#        B         A             G#
 -------------------------------------------
 -------------------------------------------
 -------------------------------------------
 -------6---4-1-----4-2---------------------
 -4-6-7---------2-------4-0---0-4h7-6-------
 -------------------------------------7-4---

Riff2 - 2 times
  A               G#
 -----------------------------
 -----------------------------
 -----------------------------
 -7--------------(6-6-6-6-6)-- ()-play only second time
 -7-------7-6-4---6-6-6-6-6---
 -5---0-5---------4-4-4-4-4---

Riff3
 -----------------------------
 -----------------------------
 -----------------------------
 -6-X16-times-----------------
 -4------------x//-pickslide--
 -----------------------------

Riff4 (very fast!)
 -----------------------------
 -----------------------------
 -----------------------------
 -------------4---6-----------
 -------4-3-----6-------------
 -5-4-2-----5-----------------

Riff5
 ---------------------------------
 ---------------------------------
 -5-5-6-6-8-8-9-9-11-11-12-12-13--
 -----------------------------^^--
 -------------------------------let ring
 ---------------------------------

        C#m          B
        Эй, тореро, жизнь как миг
          A              G#
        Опять звучит трубы призывный зов
        C#m          B
        Эй, тореро, ты или бык
           A             G#
        Качается чаша весов

With Riff2:

        Бог хранит тебя
        Смерть щадит тебя--а--а

Chorus:
                 C#            B  AG#AG#AG#
                Hеба белый платок
                  A   G# F# G#  A G#  AG#AG#AG#
                Кровь и желтый песок
                  F#           A    F#G#  A G#  Riff4
                Крик отчаянья бык живая  мишень
                 C#               B  AG#AG#AG#
                Под восторженный вой
                 A   F#G#   A   G#  AG#AG#AG#
                Ты играешь судьбой
                 F#                A         F#G#    A G#  Riff4
                Пусть не знает никто что творится в душе

        Эй, тореро, сын вдовы
        Твой красный плащ твой траурный покров
        Эй, тореро, ты будешь убит
        Под песню мадридских часов

        Бог хранит тебя
        Смерть щадит тебя-а-а

                Hеба белый платок
                Кровь и желтый песок
                Крик отчаянья бык живая мишень
                Под восторженный вой
                Ты играешь собой
                Пусть не знает никто что творится в душе

Intro riff
Riff1
Riff2

Solo:
Verse schords 4 times
Then goes only drums, bass and lead

Chorus

Riff5
        G#
        Эй, тореро

Intro riff (as outro)



 






                       


Copyright © Музыкальный Портал на Куличках 1999-2007      music@kulichki.com


    Stolica.ru    
Реклама в Интернет