Stolica.ru Реклама на Куличках     

Аккорды песен:
A B C D E F G H I J K L M N O P Q R S T U V W X Y Z
АБВГДЕЖЗИКЛМНОПРСТУФХЦЧШЩЭЮЯ





Тексты песен :     A B C D E F G H I J K L M N O P Q R S T U V W X Y Z #

ПОЛНЫЙ СПИСОК ПЕСЕН ГРУППЫ




-->




АРИЯ   
                             Возьми мое сердце
                             -----------------
                  tabbed by Vladimir Gelfand ("Little Prince")



Tempo: slow (69 bpm)

INTRO:

(0:01 - 0:13)

RIFF 1: (*2 times) (Gtr.1 - acoustic)

Gtr.1E||----------10----------------10-------|-------------------------------------||
     H||-------10----------------9-----------|----------10----------------9--------||
     G||----10----------------9--------------|----9--10-------------9--10----------||
     D||-0-----------------0-----------------|-0-----------------0-----------------||
     A||-------------------------------------|-------------------------------------||
     E||-------------------------------------|-------------------------------------||

(0:13 - 0:40)

VERSE 1:

VoiceE|----------------------------------------------------------------------------|
     H|----------------------------------------------------------------------------|
     G|----------------------------------------------------------------------------|
     D|--------------------2--2---2-------------3--3--3--3---3---2----2-2----------|
     A|----5-5-5--5-----5----------------------------------------------------------|
     E|- Slepaya noch' legla  u  nog            i ne puska - et za   porog    -----|
      |                                      |                                     |
Gtr.1E|--------1--------------------0--------|----------5-----------------4--------|
     H|-----------3--------------3-----------|----5--6--------------5--6-----------|
     G|-----2-----------------2--------------|-------------------------------------|
     D|--0-----------------0-----------------|-0-----------------0-----------------|
     A|--------------------------------------|-------------------------------------|
     E|--------------------------------------|-------------------------------------|
 
VoiceE|----------------------------------------------------------------------------|
     H|----------------------------------------------------------------------------|
     G|----------------------------------------------------------------------------|
     D|--------------------2---2---2------------3---3--3-3----3--2----2-2----------|
     A|---5--5--5--5-5-------------------------------------------------------------|
     E| Brozhu po domu,   kak vo sne,          no mne poko - ya net  nigde    -----|
      |                                      |                                     |
Gtr.1E|--------1--------------------0--------|----------5-----------------4--------|
     H|-----------3--------------3-----------|----5--6--------------5--6-----------|
     G|-----2-----------------2--------------|-------------------------------------|
     D|--0-----------------0-----------------|-0-----------------0-----------------|
     A|--------------------------------------|-------------------------------------|
     E|--------------------------------------|-------------------------------------|
 
VoiceE|----------------------------------------------------------------------------|
     H|----------------------------------------------------------------------------|
     G|----------------------------------------------------------------------------|
     D|----5-5-5--5-----5--7----5-5-----------3--3----3---3-3----3----8-7----------|
     A|----------------------------------------------------------------------------|
     E|-  Tupaya bol' probyot  visok,         i pal'tzy lyagut  na   kurok,    ----|
      |                                      |                                     |
Gtr.1E|-----------3-----------------3--------|-------1--------------------1--------|
     H|--------3-----------2----------3------|----------3-------------------3------|
     G|--0--3--------------0------------3----|----2--------------1------------2----|
     D|--------------------------------------|-0-----------------0-----------------|
     A|--------------------------------------|-------------------------------------|
     E|--------------------------------------|-------------------------------------|
 
VoiceE|----------------------------------------------------------------------------|
     H|----------------------------------------------------------------------------|
     G|----------------------------------------------------------------------------|
     D|-5----5--5-5----5---7---5----3-----5-----3-----3------3-----2---------------|
     A|----------------------------------------------------------------------------|
     E| a v zerkalah  kachnetsya  priz - rak, priz - rak   lyub - vi...       -----|
      |                                      |                                     |
Gtr.1E|-----------3-----------------3--------|--1-------------------0--^- ritenuto |
     H|--------3-----------2----------3------|------3--------------2---|-----------|
     G|--0--3--------------0------------3----|----------3---------2----|-----------|
     D|--------------------------------------|--------------3----2-----|-----------|
     A|--------------------------------------|-------------------------------------|
     E|--------------------------------------|-------------------------------------|

(0:40 - 1:08)

CHORUS: (rhythm: d-downstroke, u-upstroke)

VoiceE|-- 2/4 measure ---|
     H|------------------|
     G|------------------|
     D|-------3--2--3-2--|
     A|------------------|
     E|---- Voz'mi moyo -|
 
VoiceE|- Dm ------------------------------ F ------------------------------|
     H|--------------------------------------------------------------------|
     G|--------------------------------------------------------------------|
     D|--2-------------------7---7---5-3---5--3-----------------7--7--8-7--|
     A|-------5------------------------------------------------------------|
     E| serdtze,            voz'mi  moyu  dushu,               ya tak odi- |
      |                                  |                                 |
Gtr.1E|--1-----1---1-1-----1---1-1-1-1-0-|-1-----1---1-1-----1---1-1-1-1---|
     H|--3-----3---3-3-----3---3-3-3-3-3-|-1-----1---1-1-----1---1-1-1-1---|
     G|--2-----2---2-2-----2---2-2-2-2-2-|-2-----2---2-2-----2---2-2-2-2---|
     D|--0-----0---0-0-----0---0-0-0-0-0-|-3-----3---3-3-----3---3-3-3-3---|
     A|----------------------------------|-3-----3---3-3-----3---3-3-3-3---|
     E|----------------------------------|-1-----1---1-1-----1---1-1-1-1-x-|
         d     u   u d     u   u d u d u   d     u   u d     u   u d u d u
 
VoiceE|- Gm ------------------------------- C -----------------------------|
     H|--------------------------------------------------------------------|
     G|--------------------------------------------------------------------|
     D|--7----5-7----5---------3--3--3-2---2--------------------3--2-3-2---|
     A|----------------------------------5---------------------------------|
     E| nok v etot chas,    chto hochu umeret'.               Mne nekuda  -|
      |                                  |                                 |
Gtr.1E|--3-----3---3-3-----3---3-3-3-3-3-|-3-----3---3-3-----3---3-3-3-3-3-|
     H|--3-----3---3-3-----3---3-3-3-3-3-|-5-----5---5-5-----5---5-5-5-5-5-|
     G|--3-----3---3-3-----3---3-3-3-3-3-|-5-----5---5-5-----5---5-5-5-5-5-|
     D|--5-----5---5-5-----5---5-5-5-5-5-|-5-----5---5-5-----5---5-5-5-5-5-|
     A|--5-----5---5-5-----5---5-5-5-5-5-|-3-----3---3-3-----3---3-3-3-3-3-|
     E|--3-----3---3-3-----3---3-3-3-3-3-|-3-----3---3-3-----3---3-3-3-3-3-|
 
VoiceE|- Dm ------------------------------- F -----------------------------|
     H|--------------------------------------------------------------------|
     G|--------------------------------------------------------------------|
     D|--2-------------------7---7---5--3--5--3---------------7---7---8--7-|
     A|-------5------------------------------------------------------------|
     E| det'sya,           svoy mir ya razrushil,            po mne plachet|
      |                                  |                                 |
Gtr.1E|--1-----1---1-1-----1---1-1-1-1-0-|-1-----1---1-1-----1---1-1-1-1---|
     H|--3-----3---3-3-----3---3-3-3-3-3-|-1-----1---1-1-----1---1-1-1-1---|
     G|--2-----2---2-2-----2---2-2-2-2-2-|-2-----2---2-2-----2---2-2-2-2---|
     D|--0-----0---0-0-----0---0-0-0-0-0-|-3-----3---3-3-----3---3-3-3-3---|
     A|----------------------------------|-3-----3---3-3-----3---3-3-3-3---|
     E|----------------------------------|-1-----1---1-1-----1---1-1-1-1-x-|
 
VoiceE|- Gm ------------------------------- C -----------------------------|
     H|--------------------------------------------------------------------|
     G|--------------------------------------------------------------------|
     D|--7---5---7--5--------3--3-3--2-----2-------------------------------|
     A|----------------------------------5---------------------------------|
     E| tol'ko svecha       na holodnoy zare.                 -------------|
      |                                  |                                 |
Gtr.1E|--3-----3---3-3-----3---3-3-3-3-3-|-3-----3---3-3-------------------|
     H|--3-----3---3-3-----3---3-3-3-3-3-|-5-----5---5-5-------------------|
     G|--3-----3---3-3-----3---3-3-3-3-3-|-5-----5---5-5-------------------|
     D|--5-----5---5-5-----5---5-5-5-5-5-|-5-----5---5-5-------------------|
     A|--5-----5---5-5-----5---5-5-5-5-5-|-3-----3---3-3-------------------|
     E|--3-----3---3-3-----3---3-3-3-3-3-|-3-----3---3-3-------------------|

(1:08 - 1:22) Repeat RIFF 1 (*2 times)

(1:22 - 1:49) VERSE 2

(1:50 - 2:17) CHORUS

(2:17 - 2:45)

REFRAIN: (Gtr.2 - distorted)

VoiceE|----------------------------------------------------------------------------------------------------|
     H|----------------------------------------------------------------------------------------------------|
     G|--------------------5-----5------------------------------------------5------5-----------------------|
     D|--------3-----7--------------8--7-----8-7-3---------------3-----7--------------------8--------------|
     A|----------------------------------------------------------------------------------------------------|
     E|--     Ya   sly - shu     utrenniy   kolokol,             on  sla - vit   prazd  -  nik,     -------|
      |                                                  |                                                 |
Gtr.2E|--------------------------------------------------|-------------------------------------------------|
     H|--------------------------------------------------|-------------------------------------------------|
     G|--------------------------3-----------5-----------|-------------------------3--------5--------------|
     D|--3-----------------------3-----------5-----------|-3-----------------------3--------5--------5-p3--|
     A|--3-----------------------1-----------3-----------|-3-----------------------1--------3-----3--------|
     E|--1-----------------------------------------------|-1-----------------------------------------------|
 
VoiceE|----------------------------------------------------------------------------------------------------|
     H|----------------------------------------------------------------------------------------------------|
     G|--------------------5-----5-------------------------------------------------------------------------|
     D|--------3-----7-----------------8--7--8-7-3-----------7---7-7-------8----7--7---5-7----5------------|
     A|----------------------------------------------------------------------------------------------------|
     E|--      i    syp - let   med - yu  i zolotom    -    ty  teper' v tzarstve vechnogo  sna   ---------|
      |                                                  |                                                 |
Gtr.2E|--------------------------------------------------|-------------------------------------------------|
     H|--------------------------------------------------|-------------------------------------------------|
     G|--------------------------3-----------5-----------|-7-----------------------------------------------|
     D|--3-----------------------3-----------5-----------|-7-----------------------------------2-----2--5--|
     A|--3-----------------------1-----------3-----------|-5--------------------2-h3--2--3--5-----5--------|
     E|--1-----------------------------------------------|-------------------------------------------------|
 
VoiceE|----------------------------------------------------------------------------------------------------|
     H|----------------------------------------------------------------------------------------------------|
     G|--------------------5-----5------------------------------------------5------5-----------------------|
     D|--------3-----7--------------8--7-----8-7-3---------------3-----7--------------------8--------------|
     A|----------------------------------------------------------------------------------------------------|
     E|--     Ya   sly - shu     utrenniy   kolokol,             on   be - sov   draz  -   nit   ----------|
      |                                                  |                                                 |
Gtr.2E|--------------------------------------------------|-------------------------------------------------|
     H|--------------------------------------------------|-------------------------------------------------|
     G|--------------------------3-----------5-----------|-------------------------3--------5--------------|
     D|--3-----------------------3-----------5-----------|-3-----------------------3--------5--------5-p3--|
     A|--3-----------------------1-----------3-----------|-3-----------------------1--------3-----3--------|
     E|--1-----------------------------------------------|-1-----------------------------------------------|
 
VoiceE|----------------------------------------------------------------------------|
     H|----------------------------------------------------------------------------|
     G|-------------------5------5-------------------------------------------------|
     D|--------3-----7----------------8---7--8-7-3-----------7---7--7---8----7-----|
     A|----------------------------------------------------------------------------|
     E|--      i   zvo - nom    ne - bo  raskoloto     -    na  zemle  ya  lyu -   |
      |                                                  |                         |
Gtr.2E|--------------------------------------------------|---- 2/4 measure --------|
     H|--------------------------------------------------|-------------------------|
     G|--------------------------3-----------5-----------|-7-----------------------|
     D|--3-----------------------3-----------5-----------|-7-----------------------|
     A|--3-----------------------1-----------3-----------|-5-----------------------|
     E|--1-----------------------------------------------|-------------------------|
(2:45 - 3:12)
SOLO:
VoiceE|---------------------------------------------------------------------------------|
     H|---------------------------------------------------------------------------------|
     G|---------------------------------------------------------------------------------|
     D|---7----5-----7------5-----------------------------------------------------------|
     A|---------------------------------------------------------------------------------|
     E| -bil  lish' te -  bya....  -----------------------------------------------------|
      |                                                                                 |
Gtr.2E|---------------------------------------------------------------------------------|
     H|---------------------------------------------------------------------------------|
     G|---------------------0h2--0h2--2h3--2/3--3h5--3/5--5h7--5/7--7h9--7/9--9h10-9/10-|
     D|-2h3--2/3--3h5--3h5--------------------------------------------------------------|
     A|---------------------------------------------------------------------------------|
     E|---------------------------------------------------------------------------------|
 
Gtr.2E|---------------------------------------------------------------------------------|
     H|---------------------------------------------------------------------------------|
     G|-12b15~~~~~~~---------(12b15)release12---10----------------------------7----9----|
     D|------------------------------------------------------------------7--------------|
     A|--------------------- slow  release ---------------------------------------------|
     E|---------------------------------------------------------------------------------|
      |                                                                                 |
Bass G|---------------------------------------------------------------------------------|
     D|-----------------------------------------8---------------------------------------|
     A|----------------------------------------------8----------------------------------|
     E|-6----------------------------------6--------------6--------------6----6----6----|
 
Gtr.2E|---------------------------------------------------------------------------------|
     H|-8~~~~~~~~~~~~~~---------\6---------5----6----5--------------6-------------------|
     G|---------------------------------------------------7----5---------7--------------|
     D|---------------------------------------------------------------------------------|
     A|---------------------------------------------------------------------------------|
     E|---------------------------------------------------------------------------------|
      |                                                                                 |
Bass G|---------------------------------------------------------------------------------|
     D|---------------------------------------------------------------------------------|
     A|-5----------------------------------0h3--5---------5---------5---------3----5----|
     E|----------------------------------------------5---------5---------5--------------|
 
Gtr.2E|---------------------------------------------------------------------------------|
     H|-----------5--------------3--------------5-------------------13------------------|
     G|---------------------------------------------------------------------------------|
     D|-3---/5---------5---\3---------3---/5---------5/slide up/------------------------|
     A|----sl-------------sl-------------sl---------------------------------------------|
     E|---------------------------------------------------------------------------------|
      |                                                                                 |
Bass G|---------------------------------------------------------------------------------|
     D|---------------------------------------------------------------------------------|
     A|-3----------------------------------3----1---------------------------------------|
     E|-------------------------------3-------------------------------------------------|
 
Gtr.2E|---------------------------------------------------------------------------------|
     H|-13---11h13p11\10-------10---8h10p8---------------------------------------------------|
     G|----------------10-------------10---7----10---7h10p7-------------------------------|
     D|---------------------------------------------------10---7---10---8h10p8\7----8---|
     A|---------------------------------------------------------------------------------|
     E|---------------------------------------------------------------------------------|
      |                                                                                 |
Bass G|---------------------5---------7---------10--------12---12---10---9--------------|
     D|----------------3---------5---------7---------10-----------------------10\-------|
     A|-3-------------------------------------------------------------------------------|
     E|---------------------------------------------------------------------------------|
 
Gtr.2E|---------------------------------------------------- bend 1/4 -------------------|
     H|---------------------------------------------------------------------------------|
     G|---------------------------------------------------------------------------------|
     D|--8~~~~~~~~~~~~-----------7h8p7\5------------------5-bend~~~~-----3--------------|
     A|------------------------------------8----7----8----------------------------------|
     E|---------------------------------------------------------------------------------|
      |                                                                                 |
Bass G|---------------------------------------------------------------------------------|
     D|-----------------------------------------8---------------------------------------|
     A|----------------------------------------------8----------------------------------|
     E|-6----------------------------------6--------------6--------------6----6----6----|
 
Gtr.2E|---------------------------------------------------------------------------------|
     H|---------------------------------------------------------------------------------|
     G|-----------------------------------------------------------------------9h10-9h10-|
     D|-----------2h3--2/3--3h5--3/5--5h7--5/7--7h8-7/8--8h10-8/10--10h12-10h12----------|
     A|-3h5--3h5------------------------------------------------------------------------|
     E|---------------------------------------------------------------------------------|
      |                                                                                 |
Bass G|---------------------------------------------------------------------------------|
     D|---------------------------------------------------------------------------------|
     A|-5---------------------------------------5-------------------5-------------------|
     E|------------------------------------5--------------------------------------------|
 
Gtr.2E|-----------------------------------------8---/10---13---10--\8-------------------|
     H|-8---/10---13---10--\8-----------------------------------------------------------|
     G|---------------------------------------------------------------------------------|
     D|---------------------------------------------------------------------------------|
     A|---------------------------------------------------------------------------------|
     E|---------------------------------------------------------------------------------|
      |                                                                                 |
Bass G|---------------------------------------------------------------------------------|
     D|---------------------------------------------------------------------------------|
     A|-3----------------------------------3----1---------------------------------------|
     E|-------------------------------3-------------------------------------------------|
 
Gtr.2E|---------------------------------------------------------------------------------|
     H|-13---11h13p11\10-------10----8h10p8---------------------------------sl--------sl-----|
     G|----------------10-------------10---7----10---7h10p7---------10--\8----7---\5----|
     D|----------------------------------------------------10---7-----------------------|
     A|---------------------------------------------------------------------------------|
     E|---------------------------------------------------------------------------------|
      |                                                                                 |
Bass G|---------------------5---------7---------10--------12---12---10---9--------------|
     D|----------------3---------5---------7---------10-----------------------10--------|
     A|-3--------------------------------------------------------------------------10---|
     E|---------------------------------------------------------------------------------|

(3:13 - 3:41) Repeat REFRAIN

(3:41 - 3:59)

OUTRO:

       bil lish' tebya  -  aaaaaa.....                                                Voz' - mi   mo - yo 
Gtr.2E|-------------------------------------------------|-------------------------------------------------|
     H|-------------------------------------------------|-------------------------------------------------|
     G|-------------------------------------------------|-------------------------R-----------------------|
     D|-------------2-----2--5--3-----------------------|-(3)---------------------E-----------------------|
     A|-3--2--3--5-----5--------3-----------------------|-(3)---------------------S-----------------------|
     E|-------------------------1-----------------------|-(1)---------------------T-----------------------|

       serdtzeeeeeeeeeeeeeeeeeeeeeeeeeeeeeeeeeeeeeeeeeeeeeeeeee......
Gtr.1E|-------------10---------------------10-----------|-------------3-----2--------ritenuto-------------|
     H|---------10----------------------9---------------|---------3---------------3-----------------------|
     G|-----10----------------------9-------------------|-----2-------------------2-----------------------|
     D|-0-----------------------0-----------------------|-0-----------------------0-----------------------|
     A|-------------------------------------------------|-------------------------------------------------|
     E|-------------------------------------------------|-------------------------------------------------|


                             Возьми мое сердце
                             -----------------

 Подобрал: Ilya Sherenkov    (2:5005/33.3333)


  E =======5=========4=
  H =====6=========5===
  G ===7=========7=====
  D =0=================
  A ===========0=======
  E ===================

 /Все начало и играется на таких аккордах/

 Слепая ночь легла у ног
 И не пускает за порог,
 Брожу по дому как во сне,
 Hо мне покоя нет нигде...

Gm              /xx2333/
 Тупая боль пробьет висок,
Dm
 И пальцы лягут на курок,
/3xx330/         /xx2333/         B         A
 А в зеркалах качнется призрак, призрак любви...

R(боем):
             Dm                 F
 Возьми мое сеpдце, возьми мою душу,
           Gm                          C
 Я так одинок в этот час, что хочу умеpеть.

 Мне некуда деться,
 Свой мир я разрушил,
 По мне плачет только свеча,
 Hа холодной заре.

Ты умерла в дождливый день,
И тени плыли по воде,
Я смерть увидел в первый раз,
Ее величие и грязь:
В твоих глазах застыла боль,
Я разделю ее с тобой...
А в зеркалах качнется призрак,
Призрак любви...

R

F         B         C
  Я слышу утренний колокол,
F             B   C
  Он славит праздник!
F          B       C
  И сыпет медью и золотом:
F                      C
  Ты теперь в царстве вечного сна!

Я слышу дивный колокол,
Он бесов дразднит,
И звоном небо расколото:
Hа земле я любил лишь тебя...

...Возьми мое сердце.

 






                       


Copyright © Музыкальный Портал на Куличках 1999-2007      music@kulichki.com


    Stolica.ru    
Реклама в Интернет