Stolica.ru     

:
A B C D E F G H I J K L M N O P Q R S T U V W X Y Z





:     A B C D E F G H I J K L M N O P Q R S T U V W X Y Z #






-->



  

    
   ---------------
: 



INTRO:

.1E|---------------------------------------------------|
.2H|---------------------------------------------------|
     G|---------------------------------------------------|
     D|-------------  ------------2---|
     A|-----------------------------------------------2---|
     E|-----------------------------------------------0---|

(0:01 - 0:20)

 1: 
.1E||--------------------------------------------------|--------------------------------------------------|
.2H||--------------------------------------------------|--------------------------------------------------|
     G||-----------2--4--2-----------2-----4~~~~~---------|--------------------------------------------------|
     D||(2)-----5--4--5--4--4--5-----4-----5~~~~~------2--|-(2)----2--4--5--4-----2-----4-----5~~~~~~--------|
     A||(2)-----7-----------5--7-----------------------3--|-(3)----3--5--7--5--5--3-----5-----7~~~~~~-----3--|
     E||(0)--0--------------------------------------------|-----3--------------7--------------------------5--|

.1E|---------------------------------------------------|--------------------------------------------------|
.2H|---------------------------------------------------|--------------------------------------------------|
     G|---------------------------------------------------|--------------------------------------------------|
     D|------------0--2--0-----------0-----2-----------4--|-(4)----------------------4--3--------3--2-----2--|
     A|-(3)-----3--2--3--2--2--3-----2-----3~~~~~------2--|-(2)----------------------2--1--------1--0-----2--|
     E|-(5)--5--5-----------3--5--------------------------|-----------------------------------------------0--|

(0:21 - 0:25)

 2:
.
E|---------------------------------------------------|--------------------------------------------------|
H|---------------------------------------------------|--------------------------------------------------|
G|---------------------------------------------------|--------------------------------------------------|
D|-(2)--------------------2-----------------------2--|(2)--------------------2-----------------------2--|
A|-(2)--------------------2-----------------------2--|(2)--------------------2-----------------------2--|
E|-(0)--0--3-p0--2-p0-----0-----0--5-p0--6-p0-----0--|(0)--0--3-p0--2-p0-----0-----0--5-p0--6-p0-----0--|

(0:25 - 0:45)

1 :


E|------------------------------------------------------------------------------------------------------|
H|------------------------------------------------------------------------------------------------------|
G|------------------------2-----------------------------------------------------------------------------|
D|---------2-----4-----5-----------5-----4---5-----4----------2-----2--2-----2--------------------------|
A|------------------------------------------------------------------------------------------------------|
E|---    -        -        -      -         -  ,        ----------------|

.
E|---------------------------------------------------|--------------------------------------------------|
H|---------------------------------------------------|--------------------------------------------------|
G|---------------------------------------------------|--------------------------------------------------|
D|-(2)--------------------2-----------------------2--|(2)--------------------2-----------------------2--|
A|-(2)--------------------2-----------------------2--|(2)--------------------2-----------------------2--|
E|-(0)--0--3-p0--2-p0-----0-----0--5-p0--6-p0-----0--|(0)--0--3-p0--2-p0-----0-----0--5-p0--6-p0-----0--|



E|------------------------------------------------------------------------------------------------------|
H|------------------------------------------------------------------------------------------------------|
G|------------------------2-----------------------------------------------------------------------------|
D|---------2-----4---5------------5-----4---5-----4--------------2--------------------------------------|
A|------------------------------------------------------------------------------------------------------|
E|---      -       -    -          -             ----------------------------|
     
.
E|---------------------------------------------------|--------------------------------------------------|
H|---------------------------------------------------|--------------------------------------------------|
G|---------------------------------------------------|--------------------------------------------------|
D|-(2)--------------------2-----------------------4--|-(4)-------2-----------------------------------2--|
A|-(2)--------------------2-----------------------4--|-(4)-------2-----------------2--0-----------2--2--|
E|-(0)--0--3-p0--2-p0-----0-----0--5-p0--6-p0-----2--|-(2)-------0-----------------------3--2--3-----0--|
 
                     -        -  -      -         
.
E|---------------------------------------------------|--------------------------------------------------|
H|---------------------------------------------------|--------------------------------------------------|
G|---------------------------------------------------|--------------------------------------------------|
D|-(2)--------------------2-----------------------2--|(2)--------------------2-----------------------2--|
A|-(2)--------------------2-----------------------2--|(2)--------------------2-----------------------2--|
E|-(0)--0--3-p0--2-p0-----0-----0--5-p0--6-p0-----0--|(0)--0--3-p0--2-p0-----0-----0--5-p0--6-p0-----0--|
 
                        -    -    -       -      .
.
E|---------------------------------------------------|--------------------------------------------------|
H|---------------------------------------------------|--------------------------------------------------|
G|---------------------------------------------------|--------------------------------------------------|
D|-(2)--------------------2-----------------------4--|-(4)-------2--------------------------2--4--5--4--|
A|-(2)--------------------2-----------------------4--|-(4)-------2--------------0-h2--3--5-----------2--|
E|-(0)--0--3-p0--2-p0-----0-----0--5-p0--6-p0-----2--|-(2)-------0--------------------------------------|

(0:45 - 0:55)

-:


E|------------------------------------------------------------------------------------------------------|
H|------------------------------------------------------------------------------------------------------|
G|----------2----2---2----2-----------------------------------------------------------------------------|
D|---------------------------------5-----4---5----4--------------------------2--------------------------|
A|------------------------------------------------------------------------------------------------------|
E|---      -       -                -     ,      -------------------|
      
.
E|---------------------------------------------------|--------------------------------------------------|
H|---------------------------------------------------|--------------------------------------------------|
G|---------------------------------------------------|--------------------------------------------------|
D|-(4)--------------------------------------------5--|-(5)-------------------------------------------2--|
A|-(2)--------------------------------------------3--|-(3)-------------------------------------------0--|
E|---------------------------------------------------|--------------------------------------------------|
 

E|------------------------------------------------------------------------------------------------------|
H|------------------------------------------------------------------------------------------------------|
G|----------2----2----2---2-----------------------------------------------------------------------------|
D|---------------------------------5------4--5-----4----------------------------------------------------|
A|------------------------------------------------------------------------------------------------------|
E|---              -        - !    -----------------------------------------------|
      |                                                   |                    
|
.
E|---------------------------------------------------|--------------------------------------------------|
H|---------------------------------------------------|--------------------------------------------------|
G|---------------------------------------------------|--------------------------------------------------|
D|-(2)--------------------------------------------4--|-(4)-------------------------------------------9--|
A|-(0)--------------------------------------------2--|-(2)----------------------2-/3--3--3--3-/5--5--7--|
E|---------------------------------------------------|--------------------------------------------------|

(0:55 - 1:20)

:

E|------------------------------------------------------------------------------------------------------|
H|------------------------------------------------------------------------------------------------------|
G|------------------------------------------------------------------------------------------------------|
D|-------------5-----------4----------------------------------------------------------------------------|
A|-------------------------------------5----------3--------------------5-----5--------5-----5--0----2---|
E|---            -                 -    ,                  -       -     -   |

.
E|---------------------------------------------------|--------------------------------------------------|
H|---------------------------------------------------|--------------------------------------------------|
G|---------------------------------------------------|--------------5-----------------------7-----------|
D|-(9)--------\5-----------4----------------------5--|-(5)----2-/5-----------7--------4-/7-----------9--|
A|-(7)---------------------------------5----------3--|-(3)-3-----------------5-----5-----------------7--|
E|---------------------------------------------------|--------------------------------------------------|
 

E|------------------------------------------------------------------------------------------------------|
H|------------------------------------------------------------------------------------------------------|
G|------------------------------------------------------------------------------------------------------|
D|-------------5-----------4-------------------------------------------------------------------2-----2--|
A|-----2-------------------------------5----------3--------------------5-----5--------5-----5-----------|
E|  - ,        -                 -                        - ,            |

.
E|---------------------------------------------------|--------------------------------------------------|
H|---------------------------------------------------|--------------------------------------------------|
G|---------------------------------------------------|--------------5-----------------------7-----------|
D|-(9)--------\5-----------4----------------------5--|-(5)----2-/5-----------7--------4-/7-----9-----9--|
A|-(7)---------------------------------5----------3--|-(3)-3-----------------5-----5-----------7-----7--|
E|---------------------------------------------------|--------------------------------------------------|

(1:20 - 1:25)   2
(1:25 - 1:44) 2 
(1:45 - 1:54) -
(1:55 - 2:19) 

(2:19 - 2:29)
 3:
.
E||-------------------------------------------------|-------------------------------------------------|
H||-------------------------------------------------|-------------------------------------------------|
G||-------------------------------------------------|-------------------------------------------------|
D||-------------------------------------------------|-------------------------------------------------|
A||-------------------------------------------2-----|-------------------------------------------2-----|
E||-3--2--0--3--2--0--3--2--0--3--2--0--3--2--0-----|-3--2--0--3--2--0--3--2--0--3--2--0--3--2--0-----|

(2:29 - 3:08)

: (    :-(
        F#5                                                D5                  
E5
.
E|--------------------------------------------------|-------------------------------------------------|
H|----------------------10--7--10--7----------------|-------------------------------------------------|
G|-9bend11-----------9---------------9--6--9--------|-------------6-----------------------------------|
D|--------------------------------------------7bend9|-----------------7--4--7--6----------------------|
A|--------------------------------------------------|----------------------------7--4-----------------|
E|--------------------------------------------------|-------------------------------------------------|
        F#5                                                D5                  
H5
.
E|--------------------------------------------------|---------------------------------------12----10--|
H|--------------------------------------------------|-------------9----9b10rel9-----------------------|
G|--------------------------------------------------|-7-----9-----------------------------------------|
D|--4---4-7p4---4-7p4-...-------------------------9-|-------------------------------------------------|
A|----7-------7-------------------------------------|-------------------------------------------------|
E|--------------------------------------------------|-------------------------------------------------|
        F#5                                                D5                  
E5
.
E|-9-12p9-12p9-12p9-12p9-...------------------------|-------------------------------------------------|
H|--------------------------------------------------|-------------------------------------------------|
G|--------------------------------------------------|-------------------------------------------------|
D|--------------------------------------------------|-------------------------------------------------|
A|--------------------------------------------------|-------------------------------------------------|
E|--------------------------------------------------|-------------------------------------------------|
        F#5                                                D5                  
H5
.
E|--21----------------19----------------17----------|-------------------------------------------------|
H|-----------19----------------17-------------14----|--...--------------------------------------------|
G|--------------------------------------------------|-------------------------------------------------|
D|--------------------------------------------------|-------------------------------------------------|
A|--------------------------------------------------|-------------------------------------------------|
E|--------------------------------------------------|-------------------------------------------------|
 
.
E|--------------------------------------------------|-------------------------------------------------|
H|--------------------------------------------------|---------------------------7------7b8r7b8r7~~~~--|
G|--7bend9~~~~----------7b9release7bend9~~~~~~------|---5--5--7--7-----9--9---------------------------|
D|--------------------------------------------------|-------------------------------------------------|
A|--------------------------------------------------|-------------------------------------------------|
E|--------------------------------------------------|-------------------------------------------------|
     
.2
E|--------------------------------------------------|-------------------------------------------------|
H|--------------------------------------------------|-------------------------------------------------|
G|--------------------------------------------------|-------------------------------------------------|
D|-(9)----7-----9--------5--------4-----5--------5--|-(5)------------------7-----------------------9--|
A|-(7)----5-----7--------7--------5-----7--------3--|-(3)------------------5-----------------------7--|
E|--------------------------------------------------|-------------------------------------------------|
 
.
E|--------------------------------------------------|-------------------------------------------------|
H|----7b8r7-p5----------------7b8r7-p5-----------5--|-(5)~~~~--------5--7--8~~~~----7~~~~~~-----------|
G|--------------7--4--------------------7--4-----5--|-(5)~~~~-----------------------------------------|
D|--------------------5-----------------------5-----|-------------------------------------------------|
A|-----------------------7--------------------------|-------------------------------------------------|
E|--------------------------------------------------|-------------------------------------------------|
     
.2
E|--------------------------------------------------|-------------------------------------------------|
H|--------------------------------------------------|-------------------------------------------------|
G|--------------------------------------------------|-------------------------------------------------|
D|-(9)----7-----9--------5--------4-----5--------5--|-(5)------------------------------------------9--|
A|-(7)----5-----7--------7--------5-----7--------3--|-(3)------------------7-----------------------7--|
E|--------------------------------------------------|----------------------5--------------------------|
 
.
E|-----------------------------------------------------------------|----------------------------------|
H|--8p5---5-8p5---5-8p5---5-8p5---5-8p5---5-8p5---5-8p5---5-8p5----|-10p8---10p8---...----------------|
G|------7-------7-------7-------7-------7-------7-------7----------|------9------9--------------------|
D|-----------------------------------------------------------------|----------------------------------|
A|-----------------------------------------------------------------|----------------------------------|
E|-----------------------------------------------------------------|----------------------------------|
      
.2
E|--------------------------------------------------|-------------------------------------------------|
H|--------------------------------------------------|-------------------------------------------------|
G|--------------------------------------------------|-------------------------------------------------|
D|-(9)----7-----9--------5--------4-----5--------5--|-(5)------------------7-----------------------5--|
A|-(7)----5-----7--------7--------5-----7--------3--|-(3)------------------5-----------------------3--|
E|--------------------------------------------------|-------------------------------------------------|
...
:
(3:09 - 3:18) -
(3:19 - 3:43)  2 (   -    
)
(3:43 - 4:03)   1

(4:03 - 4:09)
OUTRO:
.
E|---------------------------------------------------|-------------------------------------------------|
H|---------------------------------------------------|-------------------------------------------------|
G|---------------------------------------------------|-------------------------------------------------|
D|--4--3--------3--2-----------4--3--------3--2------|-------------------------------------------------|
A|--2--1--------1--0-----------2--1--------1--0------|-------------------------------------------2-----|
E|---------------------------------------------------|-3--2--0--3--2--0--3--2--0--3--2--0--3--2--0-----|

 






                       


Copyright © 1999-2007      music@kulichki.com


    Stolica.ru