Stolica.ru Реклама на Куличках     

Аккорды песен:
A B C D E F G H I J K L M N O P Q R S T U V W X Y Z
АБВГДЕЖЗИКЛМНОПРСТУФХЦЧШЩЭЮЯ





Тексты песен :     A B C D E F G H I J K L M N O P Q R S T U V W X Y Z #

ПОЛНЫЙ СПИСОК ПЕСЕН ГРУППЫ




-->



АРИЯ   

Замкнутый круг
--------------
tabbed by Vladimir Gelfand ("Little Prince")

Tempo: around 100 quarternotes per minute; slightly varies.

(0:01 - 0:23)

INTRO: (all guitars clean)

SynthE|--14-- sounds throughout this line & till the end of Intro --|
     H|-------------------------------------------------------------|
     G|-------------------------------------------------------------|
     D|-------------------------------------------------------------|
     A|-------------------------------------------------------------|
     E|-------------------------------------------------------------|
 

Gtr.1E|----------------------------------|---------------------------------|
     H|----------3---------------0-------|-------------2-------------------|
     G|--------------4---------------0---|---------2-----------------------|
     D|------4---------------0-----------|-----2---------------------------|
     A|--2-------------------------------|-0-------------------------------|
     E|------------------3---------------|---------------------------------|
 
Gtr.1E|----------------------------------|---------------------------------|
     H|----------3---------------0-------|---------2-----------------------|
     G|--------------4---------------0---|---------2-----------------------|
     D|------4---------------0-----------|-----2---2-----------------------|
     A|--2-------------------------------|-0-------------------------------|
     E|------------------3---------------|------- sweep -------------------|
 
Gtr.1E|----------------------------------|---------------------------------|
     H|----------3---------------0-------|-------------2-------------------|
     G|--------------4---------------0---|---------2-----------------------|
     D|------4---------------0-----------|-----2---------------------------|
     A|--2-------------------------------|-0-------------------------------|
     E|------------------3---------------|---------------------------------|
      |                                  |                                 |
Gtr.3E|----------------------------------|---------------------------------|
     H|----------------------------------|-----------------------------3p2-|
     G|--4p2-4---------------------------|---------------------------------|
     D|----------------------------------|---------------------------------|
     A|----------------------------------|---------------------------------|
     E|----------------------------------|---------------------------------|
 
Gtr.1E|----------------------------------|---------------------------------|
     H|----------3---------------0-------|---------2-----------------------|
     G|--------------4---------------0---|---------2-----------------------|
     D|------4---------------0-----------|-----2---2-----------------------|
     A|--2-------------------------------|-0-------------------------------|
     E|------------------3---------------|-------- sweep ------------------|
      |                                  |                                 |
Gtr.3E|----------------------------------|---------------------------------|
     H|--3-------------------------------|---------------------------------|
     G|----------------------------------|---------------------------------|
     D|----------------------------------|---------------------------------|
     A|----------------------------------|---------------------------------|
     E|----------------------------------|---------------------------------|

(0:24 - 0:54)

VERSE 1:

VoiceE|--------------------------------------------------------------------|
     H|------7---7----7-7-----------------5----5---------------------------|
     G|----------------------7---7---4-------------------------------------|
     D|--------------------------------------------------------------------|
     A|--------------------------------------------------------------------|
     E|---  My  ko - lesi - li  po  do - ro - gam,     --------------------|
      |                                  |                                 |
Gtr.1E|----------------------------------|---------------------------------|
     H|----------3---------------0-------|-------------2-------------------|
     G|--------------4---------------0---|---------2-----------------------|
     D|------4---------------0-----------|-----2---------------------------|
     A|--2-------------------------------|-0-------------------------------|
     E|------------------3---------------|---------------------------------|
      |                                  |                                 |
Gtr.3E|----------------------------------|---------------------------------|
     H|----------------------------------|-------------------------3p2-----|
     G|----------------------------------|-----------------------------2---|
     D|----------------------------------|---------------------------------|
     A|----------------------------------|---------------------------------|
     E|----------------------------------|---------------------------------|
 
VoiceE|--------------------------------------------------------------------|
     H|-----7--7----7----8--------------7------5---------------------------|
     G|-----------------------7------4-------------------------------------|
     D|--------------------------------------------------------------------|
     A|--------------------------------------------------------------------|
     E|--  menya - ya stru - ny      i pod  - rug.    ---------------------|
      |                                  |                                 |
Gtr.1E|----------------------------------|---------------------------------|
     H|----------3---------------0-------|---------2-----------------------|
     G|--------------4---------------0---|---------2-----------------------|
     D|------4---------------0-----------|-----2---2-----------------------|
     A|--2-------------------------------|-0-------------------------------|
     E|------------------3---------------|-------- sweep ------------------|
      |                                  |                                 |
Gtr.3E|----------------------------------|---------------------------------|
     H|----------------------------------|---------------------------------|
     G|--4-------------------------------|---------------------------------|
     D|----------------------------------|---------------------------------|
     A|----------------------------------|---------------------------------|
     E|----------------------------------|---------------------------------|
 
VoiceE|--------------------------------------------------------------------|
     H|--5------------------------------5----------------------------------|
     G|----------------------7---7---7---------6---------------------------|
     D|--------------------------------------------7-----------------------|
     A|--------------------------------------------------------------------|
     E|- O - o - o !        Nam ne  hvata  -  lo  ruk.   ------------------|
      |                                  |                                 |
Gtr.1E|----------------------------------|---------------------------------|
     H|----------2---------------0-------|-------------2-------------------|
     G|--------------2---------------0---|---------0-----------------------|
     D|------2---------------0-----------|-----4---------------------------|
     A|--0-------------------------------|---------------------------------|
     E|------------------3---------------|-2-------------------------------|
      |                                  |                                 |
Gtr.3E|----------------------------------|---------------------------------|
     H|----------------------------------|-------------------------0h2--3/-|
     G|----------------------------------|---------------------------------|
     D|----------------------------------|---------------------------------|
     A|----------------------------------|---------------------------------|
     E|----------------------------------|---------------------------------|
 
VoiceE|------------------7-------------------------------------------------|
     H|------7---7--7---------7-----5------5---5---5-------5-7----5--------|
     G|--------------------------------7---------------7-------------7-----|
     D|--------------------------------------------------------------------|
     A|--------------------------------------------------------------------|
     E|-     I   esli vsyo   dob - ro  ot bo -ga, nam ne svetit  teplyy   -|
      |                                  |                                 |
Gtr.1E|----------------------------------|---------------------------------|
     H|----------3---------------0-------|-------------2---3--2h3p2p0------|
     G|--------------4---------------0---|---------2-------------------2---|
     D|------4---------------0-----------|-----2---------------------------|
     A|--2-------------------------------|-0-------------------------------|
     E|------------------3---------------|---------------------------------|
      |                                  |                                 |
Gtr.3E|----------------------------------|---------------------------------|
     H|-/7-------------------------------|---------------------------------|
     G|----------------------------------|---------------------------------|
     D|----------------------------------|---------------------------------|
     A|----------------------------------|---------------------------------|
     E|----------------------------------|---------------------------------|
 
VoiceE|--------------------------------------------------------------------|
     H|---5----------------------7---8-----7-----5-----5-----------------5-|
     G|----------------------------------------------------------------7---|
     D|--------------------------------------------------------------------|
     A|--------------------------------------------------------------------|
     E|- ra   -   ay,          skol'ko    ne     ig - ray.             Eto |
      |                                  |                                 |
Gtr.1E|------------------0---------------|---------------------------------|
     H|----------------------0-----------|-------------2---3---2-----------|
     G|--------------0-----------0-------|---------2---------------2-------|
     D|----------2-------------------2---|-----2-----------------------2---|
     A|------2---------------------------|-0-------------------------------|
     E|--0-------------------------------|---------------------------------|
      |                                  |                                 |
Gtr.3E|----------------------------------|-<12>----------------------------|
     H|-----------------------------<12>-|---------------------------------|
     G|----------------------------------|---------------------------------|
     D|--------------------------- N.H. -|---------------------------------|
     A|----------------------------------|---------------------------------|
     E|----------------------------------|---------------------------------|
 
VoiceE|--------------------------------------------------------------------|
     H|----7-----7-------5---5-7-------------------------------------------|
     G|------------------------------7-------------------------------------|
     D|--------------------------------------------------------------------|
     A|--------------------------------------------------------------------|
     E| pros  - to      zamknutyy  krug.   --------------------------------|
      |                                  |                                 |
Gtr.1E|--2-------2-------0---0---2-------|---------------------------------|
     H|--3-------3-------1-----------3---|-(3)-----------------------------|
     G|--2-------2-------0-----------3---|-(3)-----------------------------|
     D|--0-------0-------2-----------3---|-(3)-----------------------------|
     A|------------------3-----------1---|-(1)-----------------------------|
     E|- sw ---- sw ---- sw -------- sw -|---------------------------------|

(0:54 - 1:03) Repeat INTRO.

(1:04 - 1:33) VERSE 2

(1:33 - 2:13)

CHORUS: (Gtr.2 - distorted)

Gtr.2E|----------------------------------|
     H|----------------------------------|
     G|----------------------5---5-------|
     D|----------------------5---5-------|
     A|----------------------3---3---2---|
     E|--------------------------------3-|
 
VoiceE|------7-------7-------7--------7----5-------------------------------|
     H|--------------------------------------8-5---------------------------|
     G|--------------------------------------------------------------------|
     D|--------------------------------------------------------------------|
     A|--------------------------------------------------------------------|
     E|--   Da,     da,     da,    vsyo  skazano.  ------------------------|
      |                                  |                                 |
Gtr.2E|----------------------------------|---------------------------------|
     H|------5-------5-------5-----------|---------------------------------|
     G|------4---R---4---R---4-----------|-----2---R---2---R---2-----------|
     D|------2---E---2---E---2-----------|-----2---E---2---E---2-----------|
     A|------2---S---2---S---2-----------|-0---0---S---0---S---0-0-3-2-----|
     E|--0-------T-------T-------2---3---|---------T-------T-----------3-2-|
 
VoiceE|------7-------7-------7--7----8-----5-------------------------------|
     H|--------------------------------------------------------------------|
     G|--------------------------------------------------------------------|
     D|--------------------------------------------------------------------|
     A|--------------------------------------------------------------------|
     E|--   Da,     da,     davnym  dav - no.  ----------------------------|
      |                                  |                                 |
Gtr.2E|----------------------------------|---------------------------------|
     H|------5-------5-------5-----------|---------------------------------|
     G|------4---R---4---R---4-----------|-----2---R---2---R---2-----------|
     D|------2---E---2---E---2-----------|-----2---E---2---E---2-----------|
     A|------2---S---2---S---2-----------|-0---0---S---0---S---0-0-3-2-----|
     E|--0-------T-------T-------2---3---|---------T-------T-----------3-2-|
 
VoiceE|------7-------7-------7--------7----5-------------------------------|
     H|--------------------------------------8-5-------------------7----8--|
     G|--------------------------------------------------------------------|
     D|--------------------------------------------------------------------|
     A|--------------------------------------------------------------------|
     E|--   Da,     da,     da,    vsyo svyazano                  sa - mym |
      |                                  |                                 |
Gtr.2E|----------------------------------|---------------------------------|
     H|------5-------5-------5-----------|---------------------------------|
     G|------4---R---4---R---4-----------|-----2---R---2---R---2-----------|
     D|------2---E---2---E---2-----------|-----2---E---2---E---2-----------|
     A|------2---S---2---S---2-----------|-0---0---S---0---S---0---2---3---|
     E|--0-------T-------T-------2---3---|---------T-------T---------------|
 
VoiceE|---5------5-------5--5---7------------------------------------------|
     H|--------------8----------------8------------------------------------|
     G|--------------------------------------------------------------------|
     D|--------------------------------------------------------------------|
     A|--------------------------------------------------------------------|
     E| drev -  nim  i  hitrym  uz - lom.   -------------------------------|
      |                                  |                                 |
Gtr.2E|----------------------------------|---------------------------------|
     H|----------------------------------|---------------------------------|
     G|--7---------------4-----------5---|-(5)-----------------5---5-------|
     D|--7---------------4-----------5---|-(5)-----------------5---5-------|
     A|--5---------------2-----------3---|-(3)-----------------3---3---2---|
     E|----------------------------------|-------------------------------3-|
 
            Da,     da,      da,   vsyo  zdorovo.
Gtr.2E|----------------------------------|---------------------------------|
     H|------5-------5-------5-----------|---------------------------------|
     G|------4---R---4---R---4-----------|-----2---R---2---R---2-----------|
     D|------2---E---2---E---2-----------|-----2---E---2---E---2-----------|
     A|------2---S---2---S---2-----------|-0---0---S---0---S---0-0-3-2-----|
     E|--0-------T-------T-------2---3---|---------T-------T-----------3-2-|
 
            Da,     da,     go - ri  og - nem.
Gtr.2E|----------------------------------|---------------------------------|
     H|------5-------5-------5-----------|---------------------------------|
     G|------4---R---4---R---4-----------|-----2---R---2---R---2-----------|
     D|------2---E---2---E---2-----------|-----2---E---2---E---2-----------|
     A|------2---S---2---S---2-----------|-0---0---S---0---S---0-0-3-2-----|
     E|--0-------T-------T-------2---3---|---------T-------T-----------3-2-|
 
            Da,     da,     my  to - zhe  zoloto.                 My sver -  
Gtr.2E|----------------------------------|---------------------------------|
     H|------5-------5-------5-----------|---------------------------------|
     G|------4---R---4---R---4-----------|-----2---R---2---R---2-----------|
     D|------2---E---2---E---2-----------|-----2---E---2---E---2-----------|
     A|------2---S---2---S---2-----------|-0---0---S---0---S---0---2---3---|
     E|--0-------T-------T-------2---3---|---------T-------T---------------|
 
        ka  -  em, po - ka  ne  um - rem.
Gtr.2E|----------------------------------|---------------------------------|
     H|----------------------------------|---------------------------------|
     G|--7---------------4-----------5---|-(5)-----------------------------|
     D|--7---------------4-----------5---|-(5)-----------------------------|
     A|--5---------------2-----------3---|-(3)-----------------------------|
     E|----------------------------------|---------------------------------|

(2:14 - 2:42)

VERSE 3:
            Dru - gaya krov',  drugi - e  ra - ny.                           
Gtr.2E|----------------------------------|---------------------------------|
     H|----------------------------------|---------------------------------|
     G|----------------------------------|---------------------------------|
     D|--9---9-----------5---5-----------|-7---7---------------------------|
     A|--9---9-----------5---5-----------|-7---7---------------------------|
     E|--7---7-----------3---3-----------|-5---5-----------3-3-3---5-5-5---|
             Sovsem  drugi - e    vreme - na.
Gtr.2E|----------------------------------|---------------------------------|
     H|----------------------------------|---------------------------------|
     G|----------------------------------|---------------------------------|
     D|--9---9-----------5---5-----------|-7---7---------------------------|
     A|--9---9-----------5---5-----------|-7---7---------------------------|
     E|--7---7-----------3---3-----------|-5---5-----------3-3-3---7-7-7---|
         O  -  o - o !      Drugi - e    i  -  mena.
Gtr.2E|----------------------------------|---------------------------------|
     H|----------------------------------|---------------------------------|
     G|----------------------------------|---------------------------------|
     D|--7---7-----------5---5-----------|-4---4---------------------------|
     A|--7---7-----------5---5-----------|-4---4---------------------------|
     E|--5---5-----------3---3-----------|-2---2-----------3-3-3---5-5-5---|
            I, slovno schepkoy  v o - ke - ane,   na - mi teshatsya  shtor-
Gtr.2E|----------------------------------|---------------------------------|
     H|----------------------------------|---------------------------------|
     G|----------------------------------|---------------------------------|
     D|--9---9-----------5---5-----------|-7---7---------------------------|
     A|--9---9-----------5---5-----------|-7---7---------------------------|
     E|--7---7-----------3---3-----------|-5---5-----------5-5-5---7-7-7---|
        ma,                     a noch' koro - che  dnya.          Svet dos- 
Gtr.2E|----------------------------------|---------------------------------|
     H|--------------5-------------------|---------------------------------|
     G|--------------4-------------------|---------------------------------|
     D|--2-----------2-------------------|-7-----------7-------------------|
     A|--2-----------2-------------------|-7-----------7-------------------|
     E|--0-------------------------------|-5-----------5-------------------|
        ta - net  nas   dazhe  so  dna.   
Gtr.2E|----------------------------------|---------------------------------|
     H|--7---------------5-----------3---|-(3)-----------------------------|
     G|--7---------------5-----------3---|-(3)-----------------------------|
     D|--7---------------5-----------3---|-(3)-----------------------------|
     A|--5---------------3-----------1---|-(1)-----------------------------|
     E|----------------------------------|---------------------------------|

(2:42 - 3:22) CHORUS

SOLO:

  (3:22 - 3:58)

   Part A:(play 2 times)

   E||---------------------------------|-------------------------6---5-6-|
   H||---------------------------------|-----------------8-----8---------|
   G||---------------7-6-----6-5---4---|---------------7-----7-----------|
   D||-5p4h5/7h8p7-8-------7-----------|-5p4h5/7h8p7-8-------------------|
   A||---------------------------------|---------------------------------|
   E||---------------------------------|---------------------------------|


   E|----------------------------------|---------------------------------|
   H|--5~~~~~~~~~----------------------|-4~~~~~~~~~----------------------|
   G|----------------------------------|---------------------------------|
   D|----------------------------------|---------------------------------|
   A|----------------------------------|---------------------------------|
   E|----------------------------------|---------------------------------|


   E|----------------------------------|---------------------------------|
   H|----------------------------------|-----------------8---------------|
   G|----------------7-6-----6-5---4---|---------------7---7-------------|
   D|--5p4h5/7h8p7-8-------7-----------|-5p4h5/7h8p7-8-------8-7-8-7-----|
   A|----------------------------------|----------------------------10-8-|
   E|----------------------------------|---------------------------------|


   E|----------------------------------|---------------------------------||
   H|----------------------------------|---------------------------------||
   G|----------------------------------|---------------------------------||
   D|----------------------------------|---------------------------------||
   A|--7~~~~~~~~~----------------------|-6~~~~~~~~~~~--------------------||
   E|----------------------------------|---------------------------------||

   (3:59 - 4:35)

   Part B:

   Gtr.E|--------------------------|-------------------------|-------------------------|-------------------------|
       H|-----------12~~~~~~~~~~~--|-10-12b13-10----------10-|-10----------------------|-(10)--------------------|
       G|--9-----------------------|-------------12----9-----|-------------------------|-------------------------|
       D|--------------------------|-------------------------|-------------------------|-------------------------|
       A|--------------------------|-------------------------|-------------------------|-------------------------|
       E|--------------------------|-------------------------|-------------------------|-------------------------|
        |                          |                         |                         |                         |
   BassG|--------------------------|-------------------------|-------------------------|-------------------------|
       D|--------------------------|-------------------------|-------------------------|-------------------------|
       A|--------------------------|-------------------------|-0--------12---\---------|-0--------12---\---------|
       E|--0--------12---\---------|-0--------12---\---------|-------------------------|-------------------------|
 
   Gtr.E|--------------------------|-------------------------|-------------------------|-------------------------|
       H|--------------------------|-------------10-/12------|-------------------------|-------------------------|
       G|--------------9--12--9----|-------9--12----------11~|(11)~~~~~~~~----11-/14-14-14-12p11-------------------|
       D|--------9--12-------------|-------------------------|-------------------------|-------12-------------14-|
       A|--------------------------|-------------------------|-------------------------|-------------------------|
       E|--------------------------|-------------------------|-------------------------|-------------------------|
        |                          |                         |                         |                         |
   BassG|--------------------------|-------------------------|-------------------------|-------------------------|
       D|--------------------------|-------------------------|-------------------------|-------------------------|
       A|--------------------------|-------------------------|-0--------12---\---------|-0--------12---\---------|
       E|--0--------12---\---------|-0--------12---\---------|-------------------------|-------------------------|
 
   Gtr.E|--------------------------|-------------------------|-------------------------|----------------------19-|
       H|-----------------------15~~-17~~~~------------15-17-|-19b20~~~~~~~~~~~~~~~~~~~|(19^)~~~~~~--------17----|
       G|-----------16~~~~~~~------|-------------------------|-------------------------|-------------------------|
       D|-14-----------------------|-------------------------|-------------------------|-------------------------|
       A|--------------------------|-------------------------|-------------------------|-------------------------|
       E|--------------------------|-------------------------|-------------------------|-------------------------|
        |                          |                         |                         |                         |
   BassG|--------------------------|-------------------------|-------------------------|-------------------------|
       D|--------------------------|-------------------------|-------------------------|-------------------------|
       A|--------------------------|-------------------------|-0--------12---\---------|-0--------12---\---------|
       E|--0--------12---\---------|-0--------12---\---------|-------------------------|-------------------------|
 
   Gtr.E|-19--------------------17-|-17--19--17--15-------17-|-17----------------------|-(17)--------------------|
       H|--------------------------|-------------------17----|-------------------------|-------------------------|
       G|--------------------------|-------------------------|-------------------------|-------------------------|
       D|--------------------------|-------------------------|-------------------------|-------------------------|
       A|--------------------------|-------------------------|-------------------------|-------------------------|
       E|--------------------------|-------------------------|-------------------------|-------------------------|
        |                          |                         |                         |                         |
   BassG|--------------------------|-------------------------|-------------------------|-------------------------|
       D|--------------------------|-------------------------|-------------------------|-------------------------|
       A|--------------------------|-------------------------|-0--------12---\---------|-0--------12---\---------|
       E|--0--------12---\---------|-0--------12---\---------|-------------------------|-------------------------|

(4:35 - 5:11) Repeat Part A of the Solo.

(5:11 - 5:46)

VERSE 4: (notation above the strokes: ^ - downstroke, u - upstroke)

VoiceE|--------------------------------------------------------------------|
     H|--------7---7----7---7----5-----------------8-----------------------|
     G|---------------------------------7---4------------------------------|
     D|--------------------------------------------------------------------|
     A|--------------------------------------------------------------------|
     E|---   Slishkom  grustno  byt'   bessmert - nym  --------------------|
      |  ^           ^       ^       ^   |     ^       ^       ^ u ^   ^ u |
Gtr.1E|--2-----------2-------2-------2---|-----0-------0-------0-0-0---0-0-|
(acu)H|--3-----------3-------3-------3---|-----0-------0-------0-0-0---0-0-|
     G|--2-----------2-------2-------2---|-----0-------0-------0-0-0---0-0-|
     D|----------0-------0-------0-------|-----2-------2-------2-2-2---2-2-|
     A|----------------------------------|-----2-------2-------2-2-2---2-2-|
     E|----------------------------------|-0-------0-------0---------------|
 
VoiceE|--------------------------------------------------------------------|
     H|--------7----7---7--7----5------------------------------------------|
     G|-------------------------------7-----4------------------------------|
     D|--------------------------------------------------------------------|
     A|--------------------------------------------------------------------|
     E|------ Te  zhe  litza   den'  za  dnyom  ---------------------------|
      |  ^           ^       ^       ^   |     ^       ^       ^ u ^   ^ u |
Gtr.1E|--2-----------2-------2-------2---|-----0-------0-------0-0-0---0-0-|
     H|--3-----------3-------3-------3---|-----0-------0-------0-0-0---0-0-|
     G|--2-----------2-------2-------2---|-----0-------0-------0-0-0---0-0-|
     D|----------0-------0-------0-------|-----2-------2-------2-2-2---2-2-|
     A|----------------------------------|-----2-------2-------2-2-2---2-2-|
     E|----------------------------------|-0-------0-------0---------------|
 
VoiceE|--------------------------------------------------------------------|
     H|--------7---7----7----7--5----------------8-------------------------|
     G|-------------------------------7-----4------------------------------|
     D|--------------------------------------------------------------------|
     A|--------------------------------------------------------------------|
     E|------ Te zhe  glu - pyye      ot - ve - ty  -----------------------|
      |  ^           ^       ^       ^   |     ^       ^       ^ u ^   ^ u |
Gtr.1E|--2-----------2-------2-------2---|-----0-------0-------0-0-0---0-0-|
     H|--3-----------3-------3-------3---|-----0-------0-------0-0-0---0-0-|
     G|--2-----------2-------2-------2---|-----0-------0-------0-0-0---0-0-|
     D|----------0-------0-------0-------|-----2-------2-------2-2-2---2-2-|
     A|----------------------------------|-----2-------2-------2-2-2---2-2-|
     E|----------------------------------|-0-------0-------0---------------|
 
VoiceE|--------------------------------------------------------------------|
     H|-------------5-----7----7--5---------5------------------------------|
     G|----------7-----------------------7---------------------------------|
     D|--------------------------------------------------------------------|
     A|--------------------------------------------------------------------|
     E|-------  na vop - ros  zachem   zhivyom  ---------------------------|
      |  ^           ^       ^       ^   |     ^       ^       ^ u ^   ^ u |
Gtr.1E|--2-----------2-------2-------2---|-----0-------0-------0-0-0---0-0-|
     H|--3-----------3-------3-------3---|-----0-------0-------0-0-0---0-0-|
     G|--2-----------2-------2-------2---|-----0-------0-------0-0-0---0-0-|
     D|----------0-------0-------0-------|-----2-------2-------2-2-2---2-2-|
     A|----------------------------------|-----2-------2-------2-2-2---2-2-|
     E|----------------------------------|-0-------0-------0---------------|
 
            Ne vsem volchatam   stat'   volka - mi   
Gtr.1E|--2-----------2-------2-------2---|-----0-------0-------0-0-0---0-0-|
     H|--3-----------3-------3-------3---|-----0-------0-------0-0-0---0-0-|
     G|--2-----------2-------2-------2---|-----0-------0-------0-0-0---0-0-|
     D|----------0-------0-------0-------|-----2-------2-------2-2-2---2-2-|
     A|----------------------------------|-----2-------2-------2-2-2---2-2-|
     E|----------------------------------|-0-------0-------0---------------|
      |                                  |                                 |
Gtr.2E|----------------------------------|---------------------------------|
     H|----------------------------------|---------------------------------|
     G|----------7-----------------------|-----9---R---9---R---------------|
     D|----------7-----------------------|-----9---E---9---E---------------|
     A|----------5-----------------------|-----7---S---7---S---------------|
     E|----------------------------------|---------T-------T---------------|
 
              Ne vsyakiy  vzmah  sulit   udar   
Gtr.1E|--2-----------2-------2-------2---|-----0-------0-------0-0-0---0-0-|
     H|--3-----------3-------3-------3---|-----0-------0-------0-0-0---0-0-|
     G|--2-----------2-------2-------2---|-----0-------0-------0-0-0---0-0-|
     D|----------0-------0-------0-------|-----2-------2-------2-2-2---2-2-|
     A|----------------------------------|-----2-------2-------2-2-2---2-2-|
     E|----------------------------------|-0-------0-------0---------------|
      |                                  |                                 |
Gtr.2E|----------------------------------|---------------------------------|
     H|----------------------------------|---------------------------------|
     G|----------7-----------------------|-----9---R---9---R---------------|
     D|----------7-----------------------|-----9---E---9---E---------------|
     A|----------5-----------------------|-----7---S---7---S---------------|
     E|----------------------------------|---------T-------T---------------|
 
              Est' strannyy dar letet' na pla - mya  
Gtr.1E|--2-----------2-------2-------2---|-----0-------0-------0-0-0---0-0-|
     H|--3-----------3-------3-------3---|-----0-------0-------0-0-0---0-0-|
     G|--2-----------2-------2-------2---|-----0-------0-------0-0-0---0-0-|
     D|----------0-------0-------0-------|-----2-------2-------2-2-2---2-2-|
     A|----------------------------------|-----2-------2-------2-2-2---2-2-|
     E|----------------------------------|-0-------0-------0---------------|
      |                                  |                                 |
Gtr.2E|----------------------------------|---------------------------------|
     H|----------------------------------|---------------------------------|
     G|----------7-----------------------|-----9---R---9---R---------------|
     D|----------7-----------------------|-----9---E---9---E---------------|
     A|----------5-----------------------|-----7---S---7---S---------------|
     E|----------------------------------|---------T-------T---------------|
 
              chtob tam ostat'sya navseg -
Gtr.1E|--2-----------2-------2-------2---|
     H|--3-----------3-------3-------3---|
     G|--2-----------2-------2-------2---|
     D|----------0-------0-------0-------|
     A|----------------------------------|
     E|----------------------------------|
      |                                  |
Gtr.2E|----------------------------------|
     H|----------------------------------|
     G|----------7-----------------------|
     D|----------7-----------------------|
     A|----------5-----------------------|
     E|----------------------------------|
(5:46 - 6:25) CHORUS:
        da...    Da,    da,    da,   vsyo  skazano
Gtr.2E|----------------------------------|----------------------------------|
     H|----------------------------------|----------------------------------|
     G|--9--R----------------------------|----------2-----------------------|
     D|--9--E----------------------------|----------2-----------------------|
     A|--7--S----------------------------|----------0-------------0-3-2-----|
     E|-----T----------------------------|------------------------------3-2-|
...
(6:26 - 6:45) OUTRO:
Gtr.1E|----------------------------------|----------------------------------|
     H|----------3---------------0-------|--------------2-------------------|
     G|--------------4---------------0---|----------2-----------------------|
     D|------4---------------0-----------|------2---------------------------|
     A|--2-------------------------------|--0-------------------------------|
     E|------------------3---------------|----------------------------------|
           Chto dal'she  budet - neizvestno..    
Gtr.1E|----------------------------------|--------------------- free time --|
     H|----------3---------------0-------|----------2--^--------2-3p2p0-----|
     G|--------------4---------------0---|----------2--|----------------2---|
     D|------4---------------0-----------|------2---2--|--------------------|
     A|--2-------------------------------|--0-------------------------------|
     E|------------------3---------------|----------------------------------|
Gtr.1E|---------------------------------------------------------2--^--------|
     H|----2-3p2p0----------2-3p2p0-------------------------3---3--|--------|
     G|------------2----------------2-------------------2-------2--|--------|
     D|-------------------------------------4-------------------4--|--------|
     A|---------------------------------------------0-----------------------|
     E|---------------------------------------------------------Hm7---------|

 






                       


Copyright © Музыкальный Портал на Куличках 1999-2007      music@kulichki.com


    Stolica.ru    
Реклама в Интернет