Stolica.ru Реклама на Куличках     

Аккорды песен:
A B C D E F G H I J K L M N O P Q R S T U V W X Y Z
АБВГДЕЖЗИКЛМНОПРСТУФХЦЧШЩЭЮЯ





Тексты песен :     A B C D E F G H I J K L M N O P Q R S T U V W X Y Z #

ПОЛНЫЙ СПИСОК ПЕСЕН ГРУППЫ




-->



АРИЯ   

Дьявольский зной
----------------
tabbed by Vladimir Gelfand ("Little Prince")

Tuning: whole step down (Ebb = D
                         Hbb = A
                         Gbb = F
                         Dbb = C
                         Abb = G
                         Ebb = D)

If tuned normally, just play one full tone lower than the tab.


Tempo: moderately fast (146 bpm)


INTRO:

(0:01 - 0:13)

RIFF 1:

Gtr.1Ebb|--------------------------|
     Hbb|--------------------------|
     Gbb|--------------------------|
     Dbb|-----------------------7--|
     Abb|--------------------------|
     Ebb|--------------------------|
 
Gtr.1Ebb|--------------------------|-------------------------|-------------------------|-------------------------|
     Hbb|--------------------------|-------------------------|-------------------------|-------------------------|
     Gbb|--------------------------|-------------------------|-------------------------|-------------------------|
     Dbb|-(7)-7--7--7--7--7--7--6--|(6)-6--6--6--6--6--6--5--|(5)-5--5--5--5--5--5-----|----------------------7--|
     Abb|--------------------------|-------------------------|----------------------8--|(8)-8--8--8--8--8--8-----|
     Ebb|--------------------------|-------------------------|-------------------------|-------------------------|
 
Gtr.1Ebb|--------------------------|-------------------------|-------------------------|-------------------------|
     Hbb|--------------------------|-------------------------|-------------------------|-------------------------|
     Gbb|--------------------------|-------------------------|-------------------------|-------------------------|
     Dbb|-(7)-7--7--7--7--7--7--6--|(6)-6--6--6--6--6--6--5--|(5)-5--5--5--5--5--5-----|----------------------7--|
     Abb|--------------------------|-------------------------|----------------------8--|(8)-8--8--8--8--8--8-----|
     Ebb|--------------------------|-------------------------|-------------------------|-------------------------|
        |                          |                         |                         |                         |
Gtr.2Ebb|--------------------------|-------------------------|-------------------------|-------------------------|
     Hbb|--------------------------|-------------------------|-------------------------|----------------------10-|
     Gbb|--------------------------|-------------------------|-------------------------|-------------------------|
     Dbb|--------------------------|-------------------------|-------------------------|-------------------------|
     Abb|--------------------------|-------------------------|-------------------------|-------------------------|
     Ebb|--------------------------|-------------------------|-------------------------|-------------------------|

(0:13 - 0:26)

RIFF 2 (Gtr.2 joins to play along with RIFF 1):

Gtr.1Ebb|--------------------------|-------------------------|-------------------------|-------------------------|
     Hbb|--------------------------|-------------------------|-------------------------|-------------------------|
     Gbb|--------------------------|-------------------------|-------------------------|-------------------------|
     Dbb|-(7)-7--7--7--7--7--7--6--|(6)-6--6--6--6--6--6--5--|(5)-5--5--5--5--5--5-----|----------------------7--|
     Abb|--------------------------|-------------------------|----------------------8--|(8)-8--8--8--8--8--8-----|
     Ebb|--------------------------|-------------------------|-------------------------|-------------------------|
        |                          |                         |                         |                         |
Gtr.2Ebb|--------------------------|-------------------------|-------------------------|-------------------------|
     Hbb|-(10)~~~~~~~~~---------9--|(9)~~~~~~~~~~~~~------8--|(8)~~~~~~~~~~~--10--8----|----------------------10-|
     Gbb|-----------------7--10----|-------------------------|----------------------10-|(10)~~~~~~~~~~~~~~-------|
     Dbb|--------------------------|-------------------------|-------------------------|-------------------------|
     Abb|--------------------------|-------------------------|-------------------------|-------------------------|
     Ebb|--------------------------|-------------------------|-------------------------|-------------------------|
 
Gtr.1Ebb|--------------------------|-------------------------|-------------------------|-------------------------|
     Hbb|--------------------------|-------------------------|-------------------------|-------------------------|
     Gbb|--------------------------|-------------------------|-------------------------|-------------------------|
     Dbb|-(7)-7--7--7--7--7--7--6--|(6)-6--6--6--6--6--6--5--|(5)-5--5--5--5--5--5-----|-------------------------|
     Abb|--------------------------|-------------------------|----------------------8--|(8)-8--8--8--8--8--8--7--|
     Ebb|--------------------------|-------------------------|-------------------------|-------------------------|
        |                          |                         |                         |                         |
Gtr.2Ebb|--------------------------|-------------------------|-------------------------|-------------------------|
     Hbb|-(10)~~~~~~~~~---------9--|(9)~~~~~~~~~~~~~------8--|(8)~~~~~~~~~~~--10--8----|-------------------------|
     Gbb|-----------------7--10----|-------------------------|----------------------10-|(10)~~~~~~~~~~~~~~-------|
     Dbb|--------------------------|-------------------------|-------------------------|-------------------------|
     Abb|--------------------------|-------------------------|-------------------------|-------------------------|
     Ebb|--------------------------|-------------------------|-------------------------|-------------------------|

(0:26 - 0:53)

VERSE 1:

First two lines: there's also synthesizer's part, I didn't figure it out

VoiceEbb|--------------------------|-------------------------|-------------------------|-------------------------|
     Hbb|--------5-----5-5-----5-8-|----7---5--5----5--5--8--|----7-5---5-----5--5--5--|----------5--------------|
     Gbb|--------------------------|-------------------------|-------------------------|----5-----------5-----4--|
     Dbb|--------------------------|-------------------------|-------------------------|-------------------------|
     Abb|--------------------------|-------------------------|-------------------------|-------------------------|
     Ebb|-----  Ty   smenish' litzo,   kak naryad, ty voydesh'  v eto  te  - lo neslysh  - no,   kak  zme -  ya. |
        |                          |                         |                         |                         |
Gtr.1Ebb|--------------------------|-------------------------|-------------------------|-------------------------|
     Hbb|--------------------------|-------------------------|-------------------------|-------------------------|
     Gbb|--------------------------|-------------------------|-------------------------|-------------------------|
     Dbb|--------------------------|-------------------------|-------------------------|-------------------------|
     Abb|-(7)----------------------|-------------------------|-------------------------|----------------------7--|
     Ebb|--------------------------|-------------------------|-------------------------|-------------------------|
 
VoiceEbb|--------------------------|-----------------------6-|----5--3--3------3--3--5-|----5--------------------|
     Hbb|--------5----5----5-5---8-|---7-----5--5---5---7----|-------------------------|-------------------------|
     Gbb|--------------------------|-------------------------|-------------------------|-------------------------|
     Dbb|--------------------------|-------------------------|-------------------------|-------------------------|
     Abb|--------------------------|-------------------------|-------------------------|-------------------------|
     Ebb|-----  Ty   kol'tzami sda  - vish' menya, dav ponyat', kto iz nas v zhizni lish - niy.  ----------------|
        |                          |                         |                         |                         |
Gtr.1Ebb|--------------------------|-------------------------|-------------------------|-------------------------|
     Hbb|--------------------------|-------------------------|-------------------------|-------------------------|
     Gbb|--------------------------|-------------------------|-------------------------|-------------------------|
     Dbb|--------------------------|-------------------------|-------------------------|----------------------9~~|
     Abb|-(7)----------------------|-------------------------|-------------------------|-------------------5--7~~|
     Ebb|--------------------------|-------------------------|-------------------------|----------------7--------|

Next two lines (not sure):
               Tvoy   virus lyubvi      yadovit,    on razru  - shit menya,  no napras  -  ny   vse   slo  - va.
Gtr. Ebb|--------------------------|-------------------------|-------------------------|-------------------------|
     Hbb|--------------------------|-------------------------|-------------------------|-------------------------|
     Gbb|--------------------------|-------------------------|-------------------------|-------------------------|
     Dbb|(9)~----9-----9-----9--7~~|(7)----7-----7-----7--6~~|(6)----6-----6-----6--5--|(5)----5-----5-----5-----|
     Abb|(7)~----7-----7-----7--7~~|(7)----7-----7-----7--7~~|(7)----7-----7-----7--7--|(7)----7-----7-----7-----|
     Ebb|-----0-----0-----0--------|----0-----0-----0--------|----0-----0-----0--------|----0-----0-----0-----7--|
               Sgo - ryu kak suha   -  ya trava,   mozhet  e  -  to mne pos - lano svy  - she.
Gtr. Ebb|--------------------------|-------------------------|-------------------------|-------------------------|
     Hbb|--------------------------|-------------------------|-------------------------|-------------------------|
     Gbb|--------------------------|-------------------------|-------------------------|-------------------------|
     Dbb|--------9-----9-----9-/12-|(12)---12----12----12-11-|(11)---11----11----11-??---------------------------|
     Abb|-----7-----7-----7--------|----10----10----10-------|----9-----9-----9--------|-------------2--5-----4--|
     Ebb|--------------------------|-------------------------|-------------------------|----0-0h5--6--------3--2--|

(0:53 - 1:06)

BRIDGE:

                Lyu - bov' ne  mo - zhet byt' ti  -  hoy  igroy.
Gtr. Ebb|--------------------------|-------------------------|-------------------------|-------------------------|
     Hbb|--------------------------|-------------------------|-------------------------|-------------------------|
     Gbb|--------------------------|-------------------------|-------------------------|-------------------------|
     Dbb|--------------------------|----------5--------------|-------------------------|-------------------------|
     Abb|-(4)-------------------5--|(5)-------3--------------|-------5-\4--------------|-------5--------5-----4--|
     Ebb|-(2)-------------------3--|(3)-------------------0--|-6--7-----------7-----0--|-6--7-----6-----3-----2--|
               Dos - tatochno   isk - ry   odno - o - oy.      Mezhdu  nami  lish'  dyavol'skiy znoy.
Gtr. Ebb|--------------------------|-------------------------|-------------------------|-------------------------|
     Hbb|--------------------------|-------------------------|-------------------------|-------------------------|
     Gbb|--------------------------|-------------------------|-------------------------|-------------------------|
     Dbb|--------------------------|-------------------------|----------------------5--|(5)----------------------|
     Abb|-(4)-------------------5--|(5)-------5-----------7--|(7)-------7-----------3--|(3)-3--2--1--------------|
     Ebb|-(2)-------------------3--|(3)-------3-----------5--|(5)-------5--------------|-------------------------|

(1:06 - 1:32)

CHORUS:

VoiceEbb|-------------------------------------------------------------------------------------------------------|
     Hbb|-------------------------------------------------------------------------------------------------------|
     Gbb|-------------------------------------------------------------------------------------------------------|
     Dbb|---7-7-----7-7-----5-------5-5--5------4--------------7--7-7-----7-----5-------5---5--5----4-----------|
     Abb|--------------------------------------------7---------------------------------------------------7------|
     Ebb| Shepot   molit - vy   v  kamennyh   ste - nah,      lezviye   brit - vy      na  tonkih  ve - nah ----|
        |                         |                         |                         |                         |
Gtr.1Ebb|-------------------------|-------------------------|-------------------------|-------------------------|
     Hbb|-------------------------|-------------------------|-------------------------|-------------------------|
     Gbb|-------------------------|-------------------------|-5--------5-----5--------|-5--------5-----5--------|
     Dbb|-2--------2-----2--------|-2--------2-----2--------|-5--------5-----5--------|-5--------5-----5--------|
     Abb|-2--------2-----2--------|-2--------2-----2--------|-3--------3-----3--------|-3--------3-----3--------|
     Ebb|-0--------0-----0-----0--|-0--------0-----0-----0--|----------------------x--|----------------------x--|
 
VoiceEbb|-------------------------------------------------------------------------------------------------------|
     Hbb|-------------------------------------------------------------------------------------------------------|
     Gbb|-------------------------------------------------------------------------------------------------------|
     Dbb|---7---7---7-7-----5-------5-5----5----4---------------------------------------5--5---5---4------------|
     Abb|---------------------------------------------7--------7----------5-------------------------------7-----|
     Ebb|Schastye   naut - ro,     gore   pod  ve - cher,    vsyo        tak         stranno   i  vech - no ----|
        |                         |                         |                         |                         |
Gtr.1Ebb|-------------------------|-------------------------|-------------------------|-------------------------|
     Hbb|-------------------------|-------------------------|-------------------------|-------------------------|
     Gbb|-------------------------|-------------------------|-5-----------7-----------|-------------5-----7-----|
     Dbb|-7--------7-----7--------|-7--------7-----7--------|-5-----------7-----------|-------------5-----7-----|
     Abb|-7--------7-----7--------|-7--------7-----7--------|-3-----------5-----------|-3---3---3---3-----5-----|
     Ebb|-5--------5-----5-----x--|-5--------5-----5-----x--|-------------------------|-------------------------|
 
VoiceEbb|-------------------------------------------------------------------------------------------------------|
     Hbb|-------------------------------------------------------------------------------------------------------|
     Gbb|-------------------------------------------------------------------------------------------------------|
     Dbb|--7----7-7---7----5--------5----5----5-4-------------7-7----7----7----5--------5-5------5--4-----------|
     Abb|---------------------------------------------7--------------------------------------------------7------|
     Ebb| Pust' eto  bu - det     zvat'sya  lyubov - yu,     samoy  ne - le - poy,     samoy    zemno - yu  ----|
        |                         |                         |                         |                         |
Gtr.1Ebb|-------------------------|-------------------------|-------------------------|-------------------------|
     Hbb|-------------------------|-------------------------|-----------   Hbb|-------------------------|-------------------------|-------------------------|-------------------------|
     Gbb|-------------------------|-------------------------|-5--------5-----5--------|-5--------5-----5--------|
     Dbb|-2--------2-----2--------|-2--------2-----2--------|-5--------5-----5--------|-5--------5-----5--------|
     Abb|-2--------2-----2--------|-2--------2-----2--------|-3--------3-----3--------|-3--------3-----3--------|
     Ebb|-0--------0-----0-----0--|-0--------0-----0-----0--|----------------------x--|----------------------x--|
 
VoiceEbb|-------------------------------------------------------------------------------------------------------|
     Hbb|-------------------------------------------------------------------------------------------------------|
     Gbb|---------------------------------|
     Dbb|--7----7-7---7----5--------5-5----5----4---------------------------------7-------5---3-----------------|
     Abb|--------------------------------------------7----------------------------------------------7-----------|
     Ebb| Pust' eto  bu - det     dyavol'skim zno - yem,    zno   -   yem,szhi - ga   -  yuschim vsyo ----------|
        |                         |                         |                         |                         |
Gtr.1Ebb|-------------------------|-------------------------|-------------------------|-------------------------|
     Hbb|-------------------------|-------------------------|-------------------------|-------------------------|
     Gbb|-------------------------|-------------------------|-7--------5-----4--------|-------------------------|
     Dbb|-7--------7-----7--------|-7--------7-----7--------|-7--------5-----4-----7--|(7)-5--3-----2-----------|
     Abb|-7--------7-----7--------|-7--------7-----7--------|----------------------7--|(7)-5--4-----2-----------|
     Ebb|-5--------5-----5-----x--|-5--------5-----5-----x--|-------------------------|-------------------------|
(1:32 - 1:45)
RIFF 3: (Play 2 times)
Gtr.Ebb||-------------------------|-------------------------|-------------------------|------------------------||
    Hbb||-12~~~~~~~~-----------11-|(11)~~~~~~~~----------10-|(10)~~~~~~~~----12-10----|------------------------||
    Gbb||----------------9--12----|-------------------------|----------------------12~|(12)~~~~~~~-------------||
    Dbb||-------------------------|-------------------------|-------------------------|------------------------||
    Abb||-------------------------|-------------------------|-------------------------|------------------------||
    Ebb||-------------------------|-------------------------|-------------------------|------------------------||
       ||                         |                         |                         |                        ||
BassGbb||-------------------------|-------------------------|-------------------------|------------------------||
    Dbb||-9--------------------8--|-(8)------------------7--|-(7)---------------------|------------------------||
    Abb||-------------------------|-------------------------|----------------------10-|-(10)-------------------||
    Ebb||-------------------------|-------------------------|-------------------------|------------------------||

(1:46 - 2:12) VERSE 2

(2:12 - 2:25) BRIDGE

(2:25 - 2:51) CHORUS

(2:52 - 3:05)

RIFF 4:
Gtr.1Ebb|-------------------------|-------------------------|-------------------------|-------------------------|
     Hbb|-------------------------|-------------------------|-------------------------|-------------------------|
     Gbb|----R--------------------|-------------------------|----R--------------------|-------------8--8--8-----|
     Dbb|----E-----------------7--|-(7)---------------------|----E-----------------7--|-(7)---------8--8--8-----|
     Abb|----S-----------------5--|-(5)---------------------|----S-----------------5--|-(5)---------6--6--6-----|
     Ebb|-0--T-----0--6--7--------|----------0--7--6--5-----|-0--T-----0--6--7--------|---------0-0-------------|
Gtr.1Ebb|-------------------------|-------------------------|-------------------------|-------------------------|
     Hbb|-------------------------|-------------------------|-------------------------|-------------------------|
     Gbb|----R--------------------|-------------------------|----R--------------------|-------------------------|
     Dbb|----E-----------------7--|-(7)---------------------|----E-----------------7--|-(7)---------------------|
     Abb|----S-----------------5--|-(5)---------------------|----S-----------------5--|-(5)---------------------|
     Ebb|-0--T-----0--6--7--------|----------0--7--6--5-----|-0--T-----0--6--7--------|----------0--3--2--1-----|

SOLO:

(3:05 - 3:31)

Part A (w/RIFF 4):

Gtr.1Ebb|-------------------------|-------------------------|-------------------------|-------------------------|
     Hbb|-------------------------|-------------------------|-------------------------|-------------------------|
     Gbb|----R--------------------|-------------------------|----R--------------------|-------------8--8--8-----|
     Dbb|----E-----------------7--|-(7)---------------------|----E-----------------7--|-(7)---------8--8--8-----|
     Abb|----S-----------------5--|-(5)---------------------|----S-----------------5--|-(5)---------6--6--6-----|
     Ebb|-0--T-----0--6--7--------|----------0--7--6--5-----|-0--T-----0--6--7--------|---------0-0-------------|
        |                         |                         |                         |                         |
Gtr.2Ebb|-------------------------|-------------------------|-------------------------|-------------------------|
     Hbb|-------------------------|-------------------------|-------------------------|-----8-----10b12rel10p8-----|
     Gbb|------------------12-\9--|-(9)---------7--8--9-----|------------------12-\9--|-(9)-----------------9~~-|
     Dbb|-------------------------|----------9--------------|-------------------------|-------------------------|
     Abb|-------------------------|-------------------------|-------------------------|-------------------------|
     Ebb|-------------------------|-------------------------|-------------------------|-------------------------|
 
Gtr.1Ebb|-------------------------|-------------------------|-------------------------|-------------------------|
     Hbb|-------------------------|-------------------------|-------------------------|-------------------------|
     Gbb|----R--------------------|-------------------------|----R--------------------|-------------------------|
     Dbb|----E-----------------7--|-(7)---------------------|----E-----------------7--|-(7)---------------------|
     Abb|----S-----------------5--|-(5)---------------------|----S-----------------5--|-(5)---------------------|
     Ebb|-0--T-----0--6--7--------|----------0--7--6--5-----|-0--T-----0--6--7--------|----------0--3--2--1-----|
        |                         |                         |                         |                         |
Gtr.2Ebb|-------------------------|-------------------------|----7-----7-----7-----7--|-------------------------|
     Hbb|-------------------------|-------------------------|----10b12-10b12-10b12-10-|b12......r10p8-----------|
     Gbb|------------------12-\9--|-(9)---------7--8--9-----|-------------------------|----------------9--9-----|
     Dbb|-------------------------|----------9--------------|-------------------------|-------------------------|
     Abb|-------------------------|-------------------------|-------------------------|-------------------------|
     Ebb|-------------------------|-------------------------|-------------------------|-------------------------|
 
Gtr.1Ebb|-------------------------|-------------------------|-------------------------|-------------------------|
     Hbb|-------------------------|-------------------------|-------------------------|-------------------------|
     Gbb|----R--------------------|-------------------------|----R--------------------|-------------8--8--8-----|
     Dbb|----E-----------------7--|-(7)---------------------|----E-----------------7--|-(7)---------8--8--8-----|
     Abb|----S-----------------5--|-(5)---------------------|----S-----------------5--|-(5)---------6--6--6-----|
     Ebb|-0--T-----0--6--7--------|----------0--7--6--5-----|-0--T-----0--6--7--------|---------0-0-------------|
        |                         |                         |                         |                         |
Gtr.2Ebb|---------19-\18~~~~~~----|-18---15-----------------|-------------------------|-------------------------|
     Hbb|-------------------------|-----------17---15-17-17-|-17-15-17-17-17-15-17-17-|-17b20~~~~~~~~~~~~~------|
     Gbb|-------------------------|-------------------------|-------------------------|-------------------------|
     Dbb|-------------------------|-------------------------|-------------------------|-------------------------|
     Abb|-------------------------|-------------------------|-------------------------|-------------------------|
     Ebb|-------------------------|-------------------------|-------------------------|-------------------------|
 
Gtr.1Ebb|-------------------------|-------------------------|-------------------------|-------------------------|
     Hbb|-------------------------|-------------------------|-------------------------|-------------------------|
     Gbb|----R--------------------|-------------------------|----R--------------------|-------------------------|
     Dbb|----E-----------------7--|-(7)---------------------|----E-----------------7--|-(7)---------------------|
     Abb|----S-----------------5--|-(5)---------------------|----S-----------------5--|-(5)---------------------|
     Ebb|-0--T-----0--6--7--------|----------0--7--6--5-----|-0--T-----0--6--7--------|----------0--3--2--1-----|
        |                         |                         |                         |                         |
Gtr.2Ebb|-------------------------|-------------------------|----7-----7-----7-----7--|----7--------------------|
     Hbb|-------------------------|-------------------------|----10b12-10b12-10b12-10-|b12-10b12----------------|
     Gbb|------------------12-\9--|(9)-9--9p7----7--8--9-----|-------------------------|-------------------------|
     Dbb|-------------------------|----------9--------------|-------------------------|-------------------------|
     Abb|-------------------------|-------------------------|-------------------------|-------------------------|
     Ebb|-------------------------|-------------------------|-------------------------|-------------------------|

(3:31 - 3:57)

Part B:

LeadEbb|-------------12----------------------------------|-------------------------------------------------|
    Hbb|-14----------------14~~~~~~----13----13----13----|-12----13----14-p12-p10--------------------------|
    Gbb|-------------------------------------------------|-------------------------11~~~~~~~~~~~~----------|
    Dbb|-------------------------------------------------|-------------------------------------------------|
    Abb|-------------------------------------------------|-------------------------------------------------|
    Ebb|-------------------------------------------------|-------------------------------------------------|
 
LeadEbb|-------------------------------------------------|-------------------------------------------------|
    Hbb|-------------------------------------------------|-------------------------------------------------|
    Gbb|-11--9-------------------------------------------|-------------------------------------------------|
    Dbb|-------11-10-9-----------------------------------|-------------------------------------------------|
    Abb|---------------12--9-----------9--12-------------|-------9-----------------------------------------|
    Ebb|---------------------12--9--12-------12----------|-12----------11----12----9~~~~~~~~~~~~-----------|
 
LeadEbb|-------------------------------------------------|-------------------------------------------------|
    Hbb|-------------------------------------------------|-------------------------------------------------|
    Gbb|-------------------11~~~~~~----------------11~~~~|-(11)---------------11~~~~~~~~~~------9~~~~~~----|
    Dbb|-------10----11----------------10----11----------|-------10----11----------------------------------|
    Abb|-------------------------------------------------|-------------------------------------------------|
    Ebb|-------------------------------------------------|-------------------------------------------------|
 
LeadEbb|-------------------------------------------------|-------------------------------------------------|
    Hbb|-------------------------------------------------|-------------------------------------------------|
    Gbb|-11-p9-------11-p9-------14p11-------14p11-------|-16p14-------16p14-------16b18r16b18rel16--16b18r|
    Dbb|-------11-p9-------11-p9-------12p11-------12p11-|-------16p14-------16p14-------------------------|
    Abb|-------------------------------------------------|-------------------------------------------------|
    Ebb|-------------------------------------------------|-------------------------------------------------|
 
LeadEbb|-------------------------------------------------|-----------17----15h17--15--17--17~~~~~~~~~-------|
    Hbb|-------------------------------------------17----|---17--15------17--------------------------------|
    Gbb|r16----15----16p14-16------16--14--16--15------16--------------------------------------------------|
    Dbb|-----------------------17------------------------|-------------------------------------------------|
    Abb|-------------------------------------------------|-------------------------------------------------|
    Ebb|-------------------------------------------------|-------------------------------------------------|
 
LeadEbb|-17p15----17-------------------------------------|-------------------------------------------------|
    Hbb|-------17----17p15-17p15----17-------------------|-------------------------15~~~~~~~~~~------------|
    Gbb|-------------------------16----16p15-16p15----16-|----15h16p15----16---15h16h17--------------------------|
    Dbb|-------------------------------------------17----|-17----------17----17----------------------------------|
    Abb|-------------------------------------------------|-------------------------------------------------|
    Ebb|-------------------------------------------------|-------------------------------------------------|
 
LeadEbb|---------------------17h19p17----------------------------------------------------------------17----|
    Hbb|-------17----17h20--------------20---17----------------17h19p17----------------17----17h20-------|
    Gbb|-16h19-------------------------------------19----16h19-------------19----16h19-------------------|
    Dbb|-------------------------------------------------------------------------------------------------|
    Abb|-------------------------------------------------------------------------------------------------|
    Ebb|-------------------------------------------------------------------------------------------------|
 
LeadEbb|-19p17----------------17h21p17---------------20bend22~~~~~~~~~----------------------|
    Hbb|-------20----17h20---------------19--17h20------------------------20----------------|
    Gbb|------------------------------------------------------------------------------------|
    Dbb|------------------------------------------------------------------------------------|
    Abb|------------------------------------------------------------------------------------|
    Ebb|------------------------------------------------------------------------------------|
 
RthmEbb|-------------------------------------------------|-------------------------------------------------|
    Hbb|-------------------------------------------------|-------------------------------------------------|
    Gbb|-9-----------------7-----------------6-----------|-------------------------------------------------|
    Dbb|-9-----------------7-----------------6-----------|-------------------------------------------------|
    Abb|-7-----------------5-----------------4-----------|-------------------------2-----5-----------4-----|
    Ebb|-------------------------------------------------|-------0---0h5-----6-----------------3-----2-----|
       |                                                 |                                                 |
LeadEbb|-------------------------------------------------|-------------------------------------------------|
    Hbb|-17b18r17----------15^---------------15\---------|-------------------------------------------------|
    Gbb|-------------------------------------------------|-------------------------------------------------|
    Dbb|-------------------------------------------------|-------------------------------------------------|
    Abb|-------------------------------------------------|-------------------------------------------------|
    Ebb|-------------------------------------------------|-------------------------------------------------|

(3:57 - 4:10) BRIDGE

(4:11 - 4:37) CHORUS

(4:37 - 4:50) Repeat RIFF 4


 






                       


Copyright © Музыкальный Портал на Куличках 1999-2007      music@kulichki.com


    Stolica.ru    
Реклама в Интернет