Stolica.ru Реклама на Куличках     

Аккорды песен:
A B C D E F G H I J K L M N O P Q R S T U V W X Y Z
АБВГДЕЖЗИКЛМНОПРСТУФХЦЧШЩЭЮЯ





Тексты песен :     A B C D E F G H I J K L M N O P Q R S T U V W X Y Z #

ПОЛНЫЙ СПИСОК ПЕСЕН ГРУППЫ




-->



АРИЯ   

Смотри
------
tabbed by Vladimir Gelfand ("Little Prince")

Tempo: slow (49 bpm)

(0:04 - 0:26)

INTRO:

BassG|-----5-----------4-----------2-----------4-----------------------|
    D|---------7-----------6-----------3-----------6-------------------|
    A|-0-----------0-----------0-----------0-----------0---------------|
    E|-----------------------------------------------------------------|

BassG|-5-----------4-----------5---------------------------------------|
    D|-----7-----------6-------7---------------------------------------|
    A|---------0-----------0---5---------------------------------------|
    E|------------------------ sweep ----------------------------------|

BassG|-----5-----------4-----------2-----------4-----------------------|
    D|---------7-----------6-----------3-----------6-------------------|
    A|-0-----------0-----------0-----------0-----------0---------------|
    E|-----------------------------------------------------------------|

BassG|-5-----------4-----------2----------12---9-----------------------|
    D|-----7-----------6-----------3---------------10------------------|
    A|---------0-----------0-----------0-------------------0-----------|
    E|-----------------------------------------------------------------|

Gtr.E|-----------------------------------------------------------------|
    H|-----------------------------------------------------------------|
    G|-----------------------------------------------------------------|
    D|-----------------------------------------------------------------|
    A|-(0)---- > (turn volume knob) -----------------------------------|
    E|-----------------------------------------------------------------|

Tempo doubles: 98 bpm

(0:27 - 0:47)

VERSE 1:

VoiceE|--------------------------------------------------------------------------------------|
     H|--------------------------------------------------------------------------------------|
     G|--------------------------------------------------------------------------------------|
     D|------------------------5---------------------------------5-5-------------------------|
     A|---------------------------7-------5-7---7--7-7---------------7---7--5-7--7--7--7-----|
     E|--------------------- Smotri,    blizitsya final.         Etot vek vse sily rasteryal ---|
      |                  |                                 |                                 |
Gtr. E|-- 2/4 measure ---|---------------------------------|---------------------------------|
     H|------------------|---------------------------------|---------------------------------|
     G|------------------|---------------------------------|---------------------------------|
     D|--------------0---|-2---------------------------0---|-2---------------------------2---|
     A|----2p1---1---0---|-2---------------------------0---|-2---------------------------2---|
     E|--------3---------|---------------------------------|---------------------------------|
 
VoiceE|--------------------------------------------------------------------|
     H|--------------------------------------------------------------------|
     G|--------------------------------------------------------------------|
     D|------4--4--4-4--4--------------------------------------------------|
     A|-----------------------7-7-7---7-7----------------------------------|
     E|---  slovno staryy zver',  ranenyy zimoy.           ---------------------|
      |                                  |                                 |
Gtr. E|----------------------------------|---------------------------------|
     H|----------------------------------|---------------------------------|
     G|----------------------------------|---------------------------------|
     D|--0-------------------------------|-----------------------------0---|
     A|--0-------------4---------------3-|(3)----------------2p1---1---0---|
     E|----------------5---------------3-|(3)--------------------3---------|
 
            Vokrug  kladbische nadezhd,       vechnyy strah i torzhestvo nevezhd. 
Gtr. E|----------------------------------|---------------------------------|
     H|----------------------------------|---------------------------------|
     G|----------------------------------|---------------------------------|
     D|--2---------------------------0---|-2---------------------------2---|
     A|--2---------------------------0---|-2---------------------------2---|
     E|----------------------------------|---------------------------------|
 
           Huzhe sily net zdes' u nas s toboy.
Gtr. E|----------------------------------|---------------------------------|
     H|----------------------------------|---------------------------------|
     G|----------------------------------|---------------------------------|
     D|--0-------------------------------|---------------------7-5---------|
     A|--0-------------4---------------3-|(3)----------------------7-6-----|
     E|----------------5---------------3-|(3)--------------------------8-5-|

(0:48 - 0:57)

BRIDGE:

VoiceE|--------------------------------------------------------------------|
     H|--------------------------------------------------------------------|
     G|--------------------------------------------------------------------|
     D|-------7--7---5---7----------------------7-7-----5--7---------------|
     A|--------------------------------------------------------------------|
     E|--   Smertel'nyy yad                    kipit v moryah       -------|
      |                                  |                                 |
Gtr. E|----------------------------------|---------------------------------|
     H|----------------------------------|---------------------------------|
     G|----------------------------------|---------------------------------|
     D|------7-5-------------7-5---------|-----7-5-------------7-5-------5-|
     A|----------7-6-------------7-6-----|---------7-6-------------7-6---3-|
     E|-(5)----------8-5-------------8-7-|(7)----------8-7-------------7---|
 
VoiceE|--------------------------------------------------------------------|
     H|--------------------------------------------------------------------|
     G|--------------------------------------------------------------------|
     D|--------5-----5-5--------------5----9-7----7----5----7--------------|
     A|----------------------------7---------------------------------------|
     E|--     Kis - lota         vmesto  sveta    i   dozhdya        ------|
      |                                  |                                 |
Gtr. E|----------------------------------|---------------------------------|
     H|----------------------------------|---------------------------------|
     G|----------------------------------|---------------------------------|
     D|-(5)--5---5-----5-----5---5-----7-|(7)--7---7-----8-----------------|
     A|-(3)--3---3---x-3-----3---3---x-5-|(5)--5---5---x-6---7-6---6-------|
     E|----------------------------------|-----------------------8---8-7~~-|

(0:58 - 1:19)

CHORUS:

VoiceE|--------------------------------------------------------------------|
     H|--------------------------------------------------------------------|
     G|--------------------------------------------------------------------|
     D|-9------9-------9---------7----5----4----2---2---------------7---5--|
     A|--------------------------------------------------------------------|
     E| O  --  o  --   o!       Ve - ry   bol'she  net.           Smyt na- |
      |                                  |                                 |
Gtr. E|----------------------------------|---------------------------------|
     H|----------------------------------|---------------------------------|
     G|----------------------------------|---------------------------------|
     D|----------------------------------|---5-----4-----5-----4-----------|
     A|--5h7-7-5h7-7-5h7-7-5h7-7-5h7-5h7-|-3-----3-----3-----3-----3-------|
     E|--0-----0-----0-----0-----0---0---|---------------------------------|
 
VoiceE|--------------------------------------------------------------------|
     H|--------------------------------------------------------------------|
     G|--------------------------------------------------------------------|
     D|--4---2---2---------------4---5-----7-------5-------4---------------|
     A|----------------------------------------------------------5---------|
     E| dezhdy svet.            Ni lyub - vi      ni     zhiz - ni.  ------|
      |                                  |                                 |
Gtr. E|----------------------------------|---------------------------------|
     H|----------------------------------|---------------------------------|
     G|----------------------------------|---------------------------------|
     D|----------------------------------|---7-----7-----8-----8-------8---|
     A|--3h4-4-3h4-4-3h4-4-3h4-4-3h4-3h4-|-x-5---x-5---x-7---x-7---x-x-7---|
     E|--0-----0-----0-----0-----0---0---|---------------------------------|
 
VoiceE|--------------------------------------------------------------------|
     H|--------------------------------------------------------------------|
     G|--------------------------------------------------------------------|
     D|-9------9-------9---------7---5-----4--2----2---------------7--5----|
     A|--------------------------------------------------------------------|
     E| O  --  o  --   o!      Sko - ro gryanet  grom            v nebe  --|
      |                                  |                                 |
Gtr. E|----------------------------------|---------------------------------|
     H|----------------------------------|---------------------------------|
     G|----------------------------------|---------------------------------|
     D|----------------------------------|---5-----4-----5-----4-----------|
     A|--5h7-7-5h7-7-5h7-7-5h7-7-5h7-5h7-|-3-----3-----3-----3-----3-------|
     E|--0-----0-----0-----0-----0---0---|---------------------------------|
 
VoiceE|--------------------------------------------------------------------|
     H|--------------------------------------------------------------------|
     G|--------------------------------------------------------------------|
     D|--4----2--2----------------4--5-----7------5--------4---------------|
     A|----------------------------------------------------------5---------|
     E| go - lubom,             slovno    gor' - koy     triz - ny  -------|
      |                                  |                                 |
Gtr. E|----------------------------------|---------------------------------|
     H|----------------------------------|---------------------------------|
     G|----------------------------------|---------------------------------|
     D|----------------------------------|---7-----7-----8-----8-------8---|
     A|--3h4-4-3h4-4-3h4-4-3h4-4-3h4-3h4-|-x-5---x-5---x-7---x-7---x-x-7---|
     E|--0-----0-----0-----0-----0---0---|---------------------------------|
 
VoiceE|----------------------------------|
     H|----------------------------------|
     G|----------------------------------|
     D|---2----2----2--------------------|
     A|----------------------------------|
     E| zvo -- o -- on..  ---------------|
      |                                  |
Gtr. E|----------------------------------|
     H|----------------------------------|
     G|----------------------------------|
     D|--------------------------------0-|
     A|--5-7-7-5-7-7-5-7-7-5-7-7-5-7-7-0-|
     E|----------------------------------|

(1:20 - 1:40) VERSE 2

(1:40 - 1:50) BRIDGE

(1:50 - 2:12) CHORUS

(2:13 - 2:24)

RIFF 1:

Gtr.1E|--------------------------------------------------|-- 3/4 measure ----------------------|
Gtr.2H|--------------------------------------------------|-------------------------------------|
     G|--2-----------4--------5--------------------------|-2-----------4--------5-----5--------|
     D|--2-----------4--------5--------------------------|-2-----------4--------5-----5--------|
     A|--0-----0--0--2-----0--3-----0--0--0--0--0--0--0--|-0-----0--0--2-----0--3-----3-----0--|
     E|-->-----.--.-->-----.-->-----.--.--.--.--.--.--.--|->-----.--.-->-----.-->----->-----.--|


Gtr.1E|--------------------------------------------------|-------------------------------------------------|
Gtr.2H|--------------------------------------------------|-------------------------------------------------|
     G|--2-----------4--------5--------------------------|-2-----------4--------------------------------6--|
     D|--2-----------4--------5--------------------------|-2-----------4--------5-----5-----8-----8-----4--|
     A|--0-----0--0--2-----0--3-----0--0--0--0--0--0--0--|-0-----0--0--2-----0--3-----3-----6-----6--------|
     E|-->-----.--.-->-----.-->-----.--.--.--.--.--.--.--|->-----.--.-->-----.-->----->----->----->----->--|


Gtr.1E|--------------------------------------------------|
Gtr.2H|-----------------------10----10----13----13----17~|
     G|-(6)-6-----9-----9-----5-----5-----8-----8--------|
     D|-(4)-4-----7-----7-----------------------------2--|
     A|--------------------------------------------------|
     E|--------------------------------------------------|

SOLO:

(2:25 - 2:44)

Part A:

Gtr.1E|--------------------------------------------------|-------------------------------------------------|
     H|--------------------------------------------------|-------------------------------------------------|
     G|--------------------------------------------------|-------------------------------------------------|
     D|-(2)-2--5--2--5--2--5--4-----4--7--4--7--4--7--5--|(5)-5--9--5--9--5--7--4-----------3-----------2--|
     A|--------------------------------------------------|-------------------------------------------------|
     E|--------------------------------------------------|-------------------------------------------------|
      |                                                  |                                                 |
Gtr.2E|--------------------------------------------------|--------------------15b17-15^r15-12----------------|
     H|-(17)~~~~~~~--17----17\16~~~~~~~~~~~~-16----16\15~|(15)~~~~~~~~~~~~--12--------------15-12----------|
     G|-----------------16----------------------16-------|----------------------------------------15-12-14b|
     D|--------------------------------------------------|-------------------------------------------------|
     A|--------------------------------------------------|-------------------------------------------------|
     E|--------------------------------------------------|-------------------------------------------------|
 
Gtr.1E|--------------------------------------------------|-------------------------------------------------|
     H|--------------------------------------------------|-------------------------------------------------|
     G|--------------------------------------------------|-------------------------------------------------|
     D|-(2)-2--5--2--5--2--5--4-----4--7--4--7--4--7--3--|(3)-3--7--3--7--3--7--------------------------2--|
     A|--------------------------------------------------|----------------------3-----------2--------------|
     E|--------------------------------------------------|-------------------------------------------------|
      |                                                  |                                                 |
Gtr.2E|--------------------------------------------------|-------------------------15-------14~~~~~~~---12-|
     H|--------------------------------------------------|----------10------/13----------------------------|
     G|b16r14p12------------12-11--\\\\\---------------10-|(10)---------------------------------------------|
     D|--------14-12-13h14-------- press tremolo bar -----|-------------------------------------------------|
     A|--------------------------------------------------|-------------------------------------------------|
     E|--------------------------------------------------|-------------------------------------------------|
 
Gtr.1E|--------------------------------------------------|-------------------------------------------------|
     H|--------------------------------------------------|-------------------------------------------------|
     G|--------------------------------------------------|-------------------------------------------------|
     D|-(2)-2--5--2--5--2--5--4-----4--7--4--7--4--7--5--|(5)-5--9--5--9--5--7--4-----------3-----------2--|
     A|--------------------------------------------------|-------------------------------------------------|
     E|--------------------------------------------------|-------------------------------------------------|
      |                                                  |                                                 |
Gtr.2E|(12)----14----15----17-14-------15----17----19-15-|(15)---17----19----20-17----------13----------12-|
     H|-----12----12----12----------12----12----12-------|----17----17----17-------------------------------|
     G|--------------------------------------------------|-------------------------------------------------|
     D|--------------------------------------------------|-------------------------------------------------|
     A|--------------------------------------------------|-------------------------------------------------|
     E|--------------------------------------------------|-------------------------------------------------|
 
Gtr.1E|--------------------------------------------------|-------------------------------------------------|
     H|--------------------------------------------------|-------------------------------------------------|
     G|--------------------------------------------------|-------------------------------------------------|
     D|-(2)-2--5--2--5--2--5--4-----4--7--4--7--4--7--3--|(3)-3--7--3--7--3--7-----------------------------|
     A|--------------------------------------------------|----------------------3-----------2--------------|
     E|--------------------------------------------------|-------------------------------------------------|
      |                                                  |                                                 |
Gtr.2E|(12)----12----12----------------------------------|-------------------------------------------------|
     H|----15bf--15bf---15-12----------------------------|-------------------------------------------------|
     G|-----------------------15-15-12----14~~~~~~~~~~~~-|-\\\\- press ---------12----------11~~~~~~~~~~~--|
     D|--------------------------------14----------------|---- tremolo bar --------------------------------|
     A|--------------------------------------------------|-------------------------------------------------|
     E|--------------------------------------------------|-------------------------------------------------|

(2:44 - 2:53)

Part B:

Gtr.1E|--------------------------------------------------|-------------------------------------------------|
     H|--------------------------------------------------|-------------------------------------------------|
     G|--------------------------------------------------|-------------------------------------------------|
     D|--------------------------------------------------|-------------------------------------------------|
     A|--7-7-7-7-7-----5-5-5-5-5-----------------------------|-7-7-7-7-7-----5-5-5-5-5-----------------------------|
     E|--------------------------0--7-----6-----3--------|-------------------------0--7-----6--------------|
 
Gtr.1E|--------------------------------------------------|-------------------------------------------------|
     H|--------------------------------------------------|-------------------------------------------------|
     G|--------------------------------------------------|-------------------------------------------------|
     D|-----------------------------------------------7--|(7)-5-----------------------------------------2--|
     A|--7-7-7-7-7-----5-5-5-5-5-----------------------------|----------9-----7--------------------------------|
     E|--------------------------0--7-----6-----3--------|----------------------8--7-----------------------|
      |                                                  |                                                 |
Gtr.2E|--------------------------------------------------|-------------------------------------------------|
     H|--------------------------------------------------|-------------------------------------------------|
     G|--------------------------------------------------|-------------------------------------------------|
     D|--------------------------------------------------|-------------------------------------------------|
     A|--------------------------------------------------|----------------------------------------------12-|
     E|--------------------------------------------------|-------------------------------------------------|

(2:54 - 3:13)

Part C:

Gtr.1E|--------------------------------------------------|-------------------------------------------------|
     H|--------------------------------------------------|-------------------------------------------------|
     G|--------------------------------------------------|-------------------------------------------------|
     D|-(2)-2--5--2--5--2--5--4-----4--7--4--7--4--7--5--|(5)-5--9--5--9--5--7--4-----------3-----------2--|
     A|--------------------------------------------------|-------------------------------------------------|
     E|--------------------------------------------------|-------------------------------------------------|
      |                                                  |                                                 |
Gtr.2E|--------------------------------------------------|-------------------------------------------------|
     H|--------------------------------------------------|------------10-12-13-12-----------11~~~~~~~---10~|
     G|--------------9--10--9-----------------9-10-12-9--|(9)-9-10-12--------------------------------------|
     D|--------10-12----------12-----9-10-12-------------|-------------------------------------------------|
     A|(12)-12-------------------------------------------|-------------------------------------------------|
     E|--------------------------------------------------|-------------------------------------------------|
 
Gtr.1E|--------------------------------------------------|-------------------------------------------------|
     H|--------------------------------------------------|-------------------------------------------------|
     G|--------------------------------------------------|-------------------------------------------------|
     D|-(2)-2--5--2--5--2--5--4-----4--7--4--7--4--7--3--|(3)-3--7--3--7--3--7--------------------------2--|
     A|--------------------------------------------------|----------------------3-----------2--------------|
     E|--------------------------------------------------|-------------------------------------------------|
      |                                                  |                                                 |
Gtr.2E|-----------12--------sl------------15--------sl---|----------17-------------------------------------|
     H|(10)~~~~~~----------10/12~~~~~~~~-----------12/15-|(15)---------------15/18----------17~~~~~~~---15b|
     G|--------------------------------------------------|-------------------------------------------------|
     D|--------------------------------------------------|-------------------------------------------------|
     A|--------------------------------------------------|-------------------------------------------------|
     E|--------------------------------------------------|-------------------------------------------------|
 
Gtr.1E|--------------------------------------------------|-------------------------------------------------|
     H|--------------------------------------------------|-------------------------------------------------|
     G|--------------------------------------------------|-------------------------------------------------|
     D|-(2)-2--5--2--5--2--5--4-----4--7--4--7--4--7--5--|(5)-5--9--5--9--5--7--4-----------3-----------2--|
     A|--------------------------------------------------|-------------------------------------------------|
     E|--------------------------------------------------|-------------------------------------------------|
      |                                                  |                                                 |
Gtr.2E|------^--^--^--^--^--^----------------------------|-----^--^--^--^--^--^----------------------------|
     H|b17--15-15-15-15-15-15-15---------------------12bend13-12-12-12-12-12-12-12-------------------------|
     G|---------  gradual  ---------17p14-17-------------|----------------------------14p12-14~~~~~~~~~~---|
     D|---------  release  ------------------------------|----------  gradual  ----------------------------|
     A|--------------------------------------------------|----------  release  ----------------------------|
     E|--------------------------------------------------|-------------------------------------------------|
 
Gtr.1E|-----------------------------------------------------------------|-------------------------------------------------|
     H|-----------------------------------------------------------------|-------------------------------------------------|
     G|-----------------------------------------------------------------|-------------------------------------------------|
     D|(2)--2---5---2---5---2---5---4-------4---7---4---7---4---7---3---|(3)-3--7--3--7--3--7-----------------------------|
     A|-----------------------------------------------------------------|----------------------3-----------2--------------|
     E|-----------------------------------------------------------------|-------------------------------------------------|
      |                                                                 |                                                 |
Gtr.2E|----------------15h17p15-----15h17p15--------------------17~~~~~~~~~~---/18--|----18----------------18----------17~~~~~~~~~~---|
     H|-------15h16h17--------17p16--------17p16-15---------------------------------|-------18-15-18-15----18----------17~~~~~~~~~~---|
     G|-14/17-----------------------------------------------------------------------|-------------------15----------------------------|
     D|-----------------------------------------------------------------------------|-------------------------------------------------|
     A|-----------------------------------------------------------------------------|-------------------------------------------------|
     E|-----------------------------------------------------------------------------|-------------------------------------------------|

(3:13 - 3:23)

Part D:

Gtr.1E|-------------------------------------------------|-------------------------------------------------|
     H|-------------------------------------------------|-------------------------------------------------|
     G|----5--------4--------2--------4-----------------|-5--------4--------7-----------------------------|
     D|-------7--------6--------3--------6--------------|----7--------6-----7-----------------------------|
     A|-0--------0--------0--------0--------0-----------|-------0--------0--5-----------------------------|
     E|-------------------------------------------------|-------------------------------------------------|
      |                                                 |                                                 |
Gtr.2E|-------------------------------------------------|-------------------------------------------------|
     H|-------------------------------------------------|-------------------------------------------------|
     G|----9--------7--------5--------7-----------------|-9--------7--------7-----------------------------|
     D|------10--------9--------7--------9--------------|---10--------9-----7-----------------------------|
     A|-0--------0--------0--------0--------0-----------|-------0--------0--5-----------------------------|
     E|-------------------------------------------------|-------------------------------------------------|
 
Gtr.1E|-------------------------------------------------|----------------------------3--------------------|
     H|-------------------------------------------------|-------------------------------5-----------------|
     G|----5--------4--------2--------4-----------------|-5--------4--------2--------------5-----2--------|
     D|-------7--------6--------3--------6--------------|----7--------6--------3-----------------2--------|
     A|-0--------0--------0--------0--------0-----------|-------0--------0--------0--------------0--------|
     E|-------------------------------------------------|-------------------------------------------------|
      |                                                 |                                                 |
Gtr.2E|-------------------------------------------------|-------------------------------------------------|
     H|-------------------------------------------------|-------------------------------------------------|
     G|----9--------7--------5--------7-----------------|-9--------7--------5--------7--4-----------------|
     D|------10--------9--------7--------9--------------|---10--------9--------7-----------5-----7--------|
     A|-0--------0--------0--------0--------0-----------|-------0--------0--------0--------------7--------|
     E|-------------------------------------------------|----------------------------------------5--------|

(3:23 - 3:43) VERSE 3

(3:44 - 3:53) BRIDGE

(3:54 - 4:16) CHORUS

(4:16 - 4:25)

OUTRO:

Gtr. E|----------------------------------|---------------------------------|
     H|----------------------------------|---------------------------------|
     G|----------------------------------|---------------------------------|
     D|-(0)-----------0------------------|-(0)-----------------------------|
     A|-(0)-2p1---1---0------------------|-(0)-----------------------------|
     E|---------3------------------------|---------------------------------|
--------------------------------------------------------------------------------

 






                       


Copyright © Музыкальный Портал на Куличках 1999-2007      music@kulichki.com


    Stolica.ru    
Реклама в Интернет