Stolica.ru Реклама на Куличках     

Аккорды песен:
A B C D E F G H I J K L M N O P Q R S T U V W X Y Z
АБВГДЕЖЗИКЛМНОПРСТУФХЦЧШЩЭЮЯ





Тексты песен :     A B C D E F G H I J K L M N O P Q R S T U V W X Y Z #

ПОЛНЫЙ СПИСОК ПЕСЕН ГРУППЫ




-->



АРИЯ   

Ночь короче дня
---------------
tabbed by Vladimir Gelfand ("Little Prince")

Tempo: slow (57 bpm)

(0:02 - 0:35)

INTRO:

Gtr. E|-------------------------------------------|-------------------------------------------|
     H|-----------------12---11-------------------|-----------------12---11-------------------|
     G|--9------------------------12----11--------|--9------------------------12----11--------|
     D|--9--------------9----8--------------------|--9--------------9----8--------------------|
     A|--7------------------------10----9---------|--7------------------------10----9---------|
     E|-------------------------------------------|-------------------------------------------|
 
Gtr. E|-------------------------------------------|-------------------------------------------|
     H|-----------------12---10-------------------|-------------------------------------------|
     G|--7------------------------12----11--------|--9-------------------12---------11--------|
     D|--7--------------9----7--------------------|--9-------------------9----------8---------|
     A|--5------------------------10----9---------|--7-------------------10---------9---------|
     E|-------------------------------------------|-------------------------------------------|
 
Gtr. E|-------------------------------------------|-------------------------------------------|
     H|-----------------12---11-------------------|-----------------12---11-------------------|
     G|--9------------------------12----11--------|--9------------------------12----11--------|
     D|--9--------------9----8--------------------|--9--------------9----8--------------------|
     A|--7------------------------10----9---------|--7------------------------10----9---------|
     E|-------------------------------------------|-------------------------------------------|
      |                                           |                                           |
SynthE|-------------------------------------------|---------------------------0---2-3---------|
     H|-------------------------------------------|-------------------------0---0-------------|
     G|-------------------------------------------|-------------------------------------------|
     D|-------------------------------------------|-------------------------------------------|
     A|-------------------------------------------|-------------------------------------------|
     E|-------------------------------------------|-------------------------------------------|
 
Gtr. E|-------------------------------------------|-------------------------------------------|
     H|-----------------12---10-------------------|-------------------------------------------|
     G|--7------------------------12----11--------|--9----------------------------------------|
     D|--7--------------9----7--------------------|--9----------------------------------------|
     A|--5------------------------10----9---------|--7----------------------------------------|
     E|-------------------------------------------|-------------------------------------------|
      |                                           |                                           |
SynthE|-------------------------------------------5-7----------------5------------------------|
     H|-------------------------------5-7---5-7-8-|--------------------8-7--------------------|
     G|-----------------------------7-----7-------|-------------------------------------------|
     D|-------------------------------------------|-------------------------------------------|
     A|-------------------------------------------|-------------------------------------------|
     E|-------------------------------------------|-------------------------------------------|

Tempo: faster (90 bpm)

(0:36 - 0:57)

RIFF 1:

Gtr.1E|--7-------5---7-------5---7---8---|-7-------5---7-------5---7---8---|
Gtr.2H|--8-------7---8-------7---8---10--|-8-------7---8-------7---8---10--|
     G|----------------------------------|---------------------------------|
     D|----------------------------------|---------------------------------|
     A|----------------------------------|---------------------------------|
     E|----------------------------------|---------------------------------|
      |                                  |                                 |
Bass G|----------------------------------|---------------------------------|
     D|--9---9---9---9---9---9---9---9---|-7---7---7---7---7---7---7---7---|
     A|----7---7---7---7---7---7---7---7-|---5---5---5---5---5---5---5---5-|
     E|----------------------------------|---------------------------------|
      |                                  |                                 |
FluteE|--12----------------------12--17--|-15----------------------15--17--|
     H|----------------------12----------|---------------------12----------|
     G|----------------------------------|---------------------------------|
     D|----------------------------------|---------------------------------|
     A|----------------------------------|---------------------------------|
     E|----------------------------------|---------------------------------|
 
Gtr.1E|--7-------5---7-------5---7---8---|-7-------5---7-------5---7---8---|
Gtr.2H|--8-------7---8-------7---8---10--|-8-------7---8-------7---8---10--|
     G|----------------------------------|---------------------------------|
     D|----------------------------------|---------------------------------|
     A|----------------------------------|---------------------------------|
     E|----------------------------------|---------------------------------|
      |                                  |                                 |
Bass G|----------------------------------|---------------------------------|
     D|--5---5---5---5---5---5---5---5---|-7---7---7---7---7---7---7---7---|
     A|----3---3---3---3---3---3---3---3-|---5---5---5---5---5---5---5---5-|
     E|----------------------------------|---------------------------------|
      |                                  |                                 |
FluteE|--15----------------------15--17--|-17----------15----------14------|
     H|----------------------12----------|---------------------------------|
     G|----------------------------------|---------------------------------|
     D|----------------------------------|---------------------------------|
     A|----------------------------------|---------------------------------|
     E|----------------------------------|---------------------------------|
 
Gtr.1E|--7-------5---7-------5---7---8---|-7-------5---7-------5---7---8---|
Gtr.2H|--8-------7---8-------7---8---10--|-8-------7---8-------7---8---10--|
     G|----------------------------------|---------------------------------|
     D|----------------------------------|---------------------------------|
     A|----------------------------------|---------------------------------|
     E|----------------------------------|---------------------------------|
      |                                  |                                 |
Bass G|----------------------------------|---------------------------------|
     D|--9---9---9---9---9---9---9---9---|-7---7---7---7---7---7---7---7---|
     A|----7---7---7---7---7---7---7---7-|---5---5---5---5---5---5---5---5-|
     E|----------------------------------|---------------------------------|
      |                                  |                                 |
FluteE|--12----------------------12--17--|-15----------------------15--17--|
     H|----------------------12----------|---------------------12----------|
     G|----------------------------------|---------------------------------|
     D|----------------------------------|---------------------------------|
     A|----------------------------------|---------------------------------|
     E|----------------------------------|---------------------------------|
 
Gtr.1E|--7-------5---7-------5---7---8---|-7-------5---7---------\\\\\\----|
Gtr.2H|--8-------7---8-------7---8---10--|-8-------7---8-------------------|
     G|----------------------------------|---------------------------------|
     D|----------------------------------|---------------------------------|
     A|----------------------------------|---------------------------------|
     E|----------------------------------|---------------------------------|
      |                                  |                                 |
Bass G|----------------------------------|---------------------------------|
     D|--5---5---5---5---5---5---5---5---|-7---7---7---7---7---7---7-------|
     A|----3---3---3---3---3---3---3---3-|---5---5---5---5---5---5---------|
     E|----------------------------------|---------------------------------|
      |                                  |                                 |
FluteE|--15----------------------15--17--|-17----------15----------14------|
     H|----------------------12----------|---------------------------------|
     G|----------------------------------|---------------------------------|
     D|----------------------------------|---------------------------------|
     A|----------------------------------|---------------------------------|
     E|----------------------------------|---------------------------------|

Tempo: faster (113 bpm)

(0:57 - 1:06)

RIFF 2: (with maximum distortion)

Gtr.2E|----------------------------------|---------------------------------|
     H|----------------------------------|---------------------------------|
     G|----------------------------------|---------------------------------|
     D|--2---------------2---------------|-2---------------2---------------|
     A|--2---------------2---------------|-2---------------2---------------|
     E|--0---0-0-0-0-0-0-0---0-0-0-0-0-0-|-0---0-0-0-0-0-0-0---0-0-0-0-0-0-|
         >   . . . . . . >   . . . . . .   >   . . . . . . >   . . . . . .
Gtr.2E|----------------------------------|---------------------------------|
     H|----------------------------------|----------------------------sl---|
     G|----------------------------------|---------------------------down--|
     D|--2---------------2---------------|-2-----------------------8-\-----|
     A|--2---------------2---------------|-2-----------------------8-\-----|
     E|--0---0-0-0-0-0-0-0---0-0-0-0-0-0-|-0---0-0-0-0-0-0-0-0-0-0---------|
         >   . . . . . . >   . . . . . .   >   . . . . . . . . . . >

(1:06 - 1:58)

VERSE 1:

VoiceE|--------------------------------------------------------------------|
     H|--------------------------------------------------------------------|
     G|--------------------------------------------------------------------|
     D|------9----8--5---7-----5----------------5----------8-------7-------|
     A|--------------------------7-----5--7---------7----------------------|
     E|--  Mne   ne do sna  - palach pridyot   na  ras - sve  -   te   ----|
      |                                  |                                 |
Gtr.2E|----------------------------------|---------------------------------|
     H|----------------------------------|---------------------------------|
     G|----------------------------------|---------------------------------|
     D|--2---------------2---------------|-2---------------8-------7-------|
     A|--2---------------2---------------|-2---------------8-------7-------|
     E|--0---0-0-0-0-0-0-0---0-0-0-0-0-0-|-0---0-0-0-0-0-0-6-------5-------|
 
VoiceE|--------------------------------------------------------------------|
     H|--------------------------------------------------------------------|
     G|--------------------------------------------------------------------|
     D|-----9----8-----5-7---5--------------5----5--7--4-------------------|
     A|--------------------------7-----7-----------------------------------|
     E|--   i  zvuk  shagov za dver - yu  byot slovno nozh.    ------------|
      |                                  |                                 |
Gtr.2E|----------------------------------|---------------------------------|
     H|----------------------------------|---------------------------------|
     G|----------------------------------|---------------------------------|
     D|--2---------------2---------------|-5-----------4-------4p2-4h5p4p2p0-|
     A|--2---------------2---------------|-5-----------4-------------------|
     E|--0---0-0-0-0-0-0-0---0-0-0-0-0-0-|-3-----------2-------------------|
 
VoiceE|--------------------------------------------------------------------|
     H|--------------------------------------------------------------------|
     G|--------------------------------------------------------------------|
     D|----9-----8--5----7------5----------------5---------8-------7-------|
     A|-------------------------------7--5-7--------7----------------------|
     E|-  No v kletku  vho  -  dit   ne gonetz  vernoy   smer  -  ti  -----|
      |                                  |                                 |
Gtr.2E|----------------------------------|---------------------------------|
     H|----------------------------------|---------------------------------|
     G|----------------------------------|---------------------------------|
     D|--2---------------2---------------|-2---------------8-------7-------|
     A|--2---------------2---------------|-2---------------8-------7-------|
     E|--0---0-0-0-0-0-0-0---0-0-0-0-0-0-|-0---0-0-0-0-0-0-6-------5-------|
 
VoiceE|--------------------------------------------------------------------|
     H|--------------------------------------------------------------------|
     G|--------------------------------------------------------------------|
     D|-----9------8-5---7------5----------9----9------8-------------------|
     A|----------------------------------7---------------------------------|
     E|---  a  v ryase chyor - noy    svyata - ya     lozh'.    -----------|
      |                                  |                                 |
Gtr.2E|----------------------------------|---------------------------------|
     H|----------------------------------|---------------------------------|
     G|----------------------------------|---------------------------------|
     D|--2---------------2---------------|-5-----------4-------------------|
     A|--2---------------2---------------|-5-----------4-------------------|
     E|--0---0-0-0-0-0-0-0---0-0-0-0-0-0-|-3-----------2-------------------|
 
           Svyatoy  o - tetz  prines vo t'mu  slo - vo   bozh  -  ye
Gtr.2E|----------------------------------|---------------------------------|
     H|----------------------------------|---------------------------------|
     G|----------------------------------|---------------------------------|
     D|--2---------------2---------------|-2---------------8-------7-------|
     A|--2---------------2---------------|-2---------------8-------7-------|
     E|--0---0-0-0-0-0-0-0---0-0-0-0-0-0-|-0---0-0-0-0-0-0-6-------5-------|
 
             i vechnoy zhizni  mne   su - lil chu - desa
Gtr.2E|----------------------------------|---------------------------------|
     H|----------------------------------|---------------------------------|
     G|----------------------------------|---------------------------------|
     D|--2---------------2---------------|-5-----------4-------4p2-4h5p4p2p0-|
     A|--2---------------2---------------|-5-----------4-------------------|
     E|--0---0-0-0-0-0-0-0---0-0-0-0-0-0-|-3-----------2-------------------|
 
            Ty smertnik  i  vernut'sya k bo - gu  ty    dol  -   zhen
Gtr.2E|----------------------------------|---------------------------------|
     H|----------------------------------|---------------------------------|
     G|----------------------------------|---------------------------------|
     D|--2---------------2---------------|-2---------------8-------7-------|
     A|--2---------------2---------------|-2---------------8-------7-------|
     E|--0---0-0-0-0-0-0-0---0-0-0-0-0-0-|-0---0-0-0-0-0-0-6-------5-------|
 
           sheptal svyaschen - nik    i  lgal  v gla - za.
Gtr.2E|----------------------------------|---------------------------------|
     H|----------------------------------|---------------------------------|
     G|----------------------------------|---------------------------------|
     D|--2---------------2---------------|-5-----------4-------------------|
     A|--2---------------2---------------|-5-----------4-------------------|
     E|--0---0-0-0-0-0-0-0---0-0-0-0-0-0-|-3-----------2-------------------|
 
VoiceE|--------------------------------------------------------------------|
     H|--------------------------------------------------------------------|
     G|--------------------------------------------------------------------|
     D|---4------4---2-----------4-------5------4------2------------5------|
     A|--------------------------------------------------------------------|
     E|- Kay - sya, syn,        zem  -  na  -  ya    zhizn'   -   pre -   -|
      |                                  |                                 |
Gtr.2E|----------------------------------|---------------------------------|
     H|----------------------------------|---------------------------------|
     G|--4-----------4-------------------|-5-----------5-------------------|
     D|--4-----------4-------------------|-5-----------5-------------------|
     A|--2-----------2-------------------|-3-----------3-------------------|
     E|----------------------------------|---------------------------------|
      |                                  |                                 |
Bass G|----------------------------------|---------------------------------|
     D|--------------------------4-------|-------------------------5-------|
     A|--2-----------2---------2---3-2---|-3-----------3---------3---5-3---|
     E|--------------------------------3-|-------------------------------5-|
 
VoiceE|--------------------------------------------------------------------|
     H|--------------------------------------------------------------------|
     G|--------------------------------------------------------------------|
     D|---7------5----4----------7------5----------------------------------|
     A|--------------------------------------------------------------------|
     E| lyu  -  di - ya     k  dru  -  goy.         -----------------------|
      |                                  |                                 |
Gtr.2E|----------------------------------|---------------------------------|
     H|----------------------------------|---------------------------------|
     G|--7-----------7-------------------|---------------------------------|
     D|--7-----------7-------------------|-2---2---2---2---5p4p2p0-5p4p2p0-|
     A|--5-----------5-------------------|-2---2---2---2-------------------|
     E|----------------------------------|-0---0---0---0-------------------|
      |                                  |                                 |
Bass G|--------------------------7-------|---------------------------------|
     D|----------------------7-7-----0---|-2---2---2---2---5p4p2p0-5p4p2p0-|
     A|--5-----------5-------------------|---------------------------------|
     E|----------------------------------|---------------------------------|
 
VoiceE|--------------------------------------------------------------------|
     H|--------------------------------------------------------------------|
     G|--------------------------------------------------------------------|
     D|---4------4----2-----------4------5-------4------2----------5-------|
     A|--------------------------------------------------------------------|
     E|- Na    ste - ne         svo  -  yey    tyur' - my          u -    -|
      |                                  |                                 |
Gtr.2E|----------------------------------|---------------------------------|
     H|----------------------------------|---------------------------------|
     G|--4-----------4-------------------|-5-----------5-------------------|
     D|--4-----------4-------------------|-5-----------5-------------------|
     A|--2-----------2-------------------|-3-----------3-------------------|
     E|----------------------------------|---------------------------------|
 
VoiceE|--------------------------------------------------------------------|
     H|--------------------------------------------------------------------|
     G|--------------------------------------------------------------------|
     D|---7----5-----4-------------------9---------------------------------|
     A|---------------------------5----------------------------------------|
     E|- vi - dish' lik        svya  -  toy!          ---------------------|
      |                                  |                                 |
Gtr.2E|----------------------------------|---------------------------------|
     H|----------------------------------|---------------------------------|
     G|--7-----------7-------------------|-4---4---4---4-------------------|
     D|--7-----------7-------------------|-4---4---4---4-------------------|
     A|--5-----------5---------------0---|-2---2---2---2---3-3-3-3-5-5-5-5-|
     E|----------------------------------|---------------------------------|

(1:58 - 2:15)

CHORUS:

VoiceE|--------------------------------------------------------------------|
     H|--------------------------------------------------------------------|
     G|--------------------------------------------------------------------|
     D|-------------9----8--5----4--------------------9----8----5--4-------|
     A|--7---------------------------------7-------------------------------|
     E|-Noch'      ko - roche  dnya,      den'        u - byot menya ------|
      |                                  |                                 |
Gtr. E|----------------------------------|---------------------------------|
     H|----------------------------------|---------------------------------|
     G|----------------------------------|---------------------------------|
     D|--9----------/9--\8---------------|-9----------/9--\8---------------|
     A|--7------------------10---9-------|-7------------------10---9-------|
     E|----------------------------------|---------------------------------|
 
VoiceE|--------------------------------------------------------------------|
     H|--------------------------------------------------------------------|
     G|--------------------------------------------------------------------|
     D|------------9---7----5-----4------5-4-------------------------------|
     A|--5--------------------------------------7--------------------------|
     E| Mir        illyu - ziy v nyom  sgora - yet.     -------------------|
      |                                  |                                 |
Gtr. E|----------------------------------|---------------------------------|
     H|----------------------------------|---------------------------------|
     G|----------------------------------|-----------------4-------3-------|
     D|--7----------/9--\7---------------|-9---------------5-------4-------|
     A|--5------------------10---9-------|-7---------------5-------4-------|
     E|----------------------------------|-----------------3-------2-------|
 
VoiceE|--------------------------------------------------------------------|
     H|--------------------------------------------------------------------|
     G|--------------------------------------------------------------------|
     D|-------------9----8--5----4--------------------9----8----5--4-------|
     A|--7---------------------------------7-------------------------------|
     E|-Noch'      ko - roche  dnya,      den'        u - byot menya ------|
      |                                  |                                 |
Gtr. E|----------------------------------|---------------------------------|
     H|----------------------------------|---------------------------------|
     G|----------------------------------|---------------------------------|
     D|--9----------/9--\8---------------|-9----------/9--\8---------------|
     A|--7------------------10---9-------|-7------------------10---9-------|
     E|----------------------------------|---------------------------------|
 
VoiceE|--------------------------------------------------------------------|
     H|--------------------------------------------------------------------|
     G|--------------------------------------------------------------------|
     D|--------------9----7---5---4---5-----------4--------5-------7-------|
     A|--5---------------------------------7-------------------------------|
     E| Vsyo       zhi - vo - e   ische - za  -  yet,     kak      i     --|
      |                                  |                                 |
Gtr. E|----------------------------------|---------------------------------|
     H|----------------------------------|---------------------------------|
     G|----------------------------------|---------------------------------|
     D|--7----------/9--\7---------------|-5---------------7---------------|
     A|--5------------------10---9-------|-3---------------5---------------|
     E|----------------------------------|---------------------------------|

(2:16 - 2:32)

RIFF 3:

VoiceE|--------------------------------------------------------------------|
     H|--------------------------------------------------------------------|
     G|--------------------------------------------------------------------|
     D|--5-----------------------------------------------------------------|
     A|--------------------------------------------------------------------|
     E| ya     -     aaaaaaaaa ......   -----------------------------------|
      |                                  |                                 |
Gtr. E|----------------------------------|---------------------------------|
     H|----------------------------------|---------------------------------|
     G|----------------------------------|---------------------------------|
     D|--5---4p0-------------5---4p0-----|-5---4p0-------------5---4p0-----|
     A|----------3-------------------3---|---------3-------------------3---|
     E|----------------------------------|---------------------------------|
      |                                  |                                 |
Bass G|----------------------------------|---------------------------------|
     D|----------------------------------|--------------------/5---4p2p0---|
     A|--3---3-3-3---3-3-3---3-3-3---3-3-|-3---3-3-3---3-3-3---------------|
     E|----------------------------------|---------------------------------|
 
Gtr. E|----------------------------------|---------------------------------|
     H|----------------------------------|---------------------------------|
     G|----------------------------------|---------------------------------|
     D|--5---4p0-2-----------5---4p0-2---|-5---4p0-2-----------5---4p0-2---|
     A|----------------------------------|---------------------------------|
     E|----------------------------------|---------------------------------|
      |                                  |                                 |
Bass G|----------------------------------|---------------------------------|
     D|--2---2-2-2---2-2-2---2-2-2---2-2-|-2---2-2-2---2-2-2--/5---4p2p0---|
     A|----------------------------------|---------------------------------|
     E|----------------------------------|---------------------------------|
 
Gtr. E|----------------------------------|---------------------------------|
     H|----------------------------------|---------------------------------|
     G|----------------------------------|---------------------------------|
     D|--5---4p0-------------5---4p0-----|-5---4p0-------------5---4p0-----|
     A|----------3-------------------3---|---------3-------------------3---|
     E|----------------------------------|---------------------------------|
      |                                  |                                 |
Bass G|----------------------------------|---------------------------------|
     D|----------------------------------|--------------------/5---4p2p0---|
     A|--3---3-3-3---3-3-3---3-3-3---3-3-|-3---3-3-3---3-3-3---------------|
     E|----------------------------------|---------------------------------|
 
Gtr. E|----------------------------------|---------------------------------|
     H|----------------------------------|---------------------------------|
     G|----------------------------------|---------------------------------|
     D|--5---4p0-2-----------5---4p0-2---|-5---4p0-2-----------------------|
     A|----------------------------------|---------------------------------|
     E|----------------------------------|---------------------------------|
      |                                  |                                 |
Bass G|----------------------------------|---------------------------------|
     D|--2---2-2-2---2-2-2---2-2-2---2-2-|-2---2-2-2---2-2-2---------------|
     A|----------------------------------|---------------------------------|
     E|----------------------------------|---------------------------------|

(2:33 - 3:24) VERSE 2

(3:24 - 3:41) CHORUS

(3:42 - 4:15) Play RIFF 3  (*2 times)

Tempo: half-time (57 bpm)

(4:15 - 4:33)

RIFF 4:

Gtr.1E|------------------------------------------------------------------|
     H|------------------------------------------------------------------|
     G|------------------------------------------------------------------|
     D|----------9-----------7-------------------9-----------7-----------|
     A|--7-----------9----------10---9---7-h-9-------9--10------10---9---|
     E|------------------------------------------------------------------|
      |                                                                  |
Gtr.2E|- E5 -------------------------------------------------------------|
     H|------------------------------------------------------------------|
     G|------------------------------------------------------------------|
     D|--2---------------------------------------------------------------|
     A|--2---------------------------------------------------------------|
     E|--0---------------------------------------------------------------|
 
Gtr.1E|------------------------------------------------------------------|
     H|------------------------------------------------------------------|
     G|------------------------------------------------------------------|
     D|----------9-----------7-------------------9-----------7-----------|
     A|--7-----------9----------10---9---7-h-9-------9--10------10---9---|
     E|------------------------------------------------------------------|
      |                                                                  |
Gtr.2E|-- C -------------------------------------------------------------|
     H|--5---------------------------------------------------------------|
     G|--5---------------------------------------------------------------|
     D|--5---------------------------------------------------------------|
     A|--3---------------------------------------------------------------|
     E|------------------------------------------------------------------|
 
Gtr.1E|------------------------------------------------------------------|
     H|------------------------------------------------------------------|
     G|------------------------------------------------------------------|
     D|----------9-----------7-------------------9-----------7-----------|
     A|--7-----------9----------10---9---7-h-9-------9--10------10---9---|
     E|------------------------------------------------------------------|
      |                                                                  |
Gtr.2E|- A5 -------------------------------------------------------------|
     H|------------------------------------------------------------------|
     G|--2---------------------------------------------------------------|
     D|--2---------------------------------------------------------------|
     A|--0---------------------------------------------------------------|
     E|------------------------------------------------------------------|
 
Gtr.1E|------------------------------------------------------------------|
     H|------------------------------------------------------------------|
     G|------------------------------------------------------------------|
     D|---------10-----------7------------------10-----------7-----------|
     A|--8----------10----------10---8---7-h-8-------8--10------10---8---|
     E|------------------------------------------------------------------|
      |                                                                  |
Gtr.2E|-- F -------------------------------------------------------------|
     H|------------------------------------------------------------------|
     G|--2---------------------------------------------------------------|
     D|--3---------------------------------------------------------------|
     A|--3---------------------------------------------------------------|
     E|--1---------------------------------------------------------------|

Tempo: double-time (113 bpm)

(4:33 - 4:49)

RIFF 4A: (doubled speed !)

Gtr.1E|-------------------------------------------------|-------------------------------------------------|
     H|-------------------------------------------------|-------------------------------------------------|
     G|-------------------------------------------------|-------------------------------------------------|
     D|-------9--------7--------------9--------7--------|-------9--------7--------------9--------7--------|
     A|-7--------9-------10--9--7-h9-----9--10---10--9--|-7--------9-------10--9--7-h9-----9--10---10--9--|
     E|-------------------------------------------------|-------------------------------------------------|
      |                                                 |                                                 |
Bass G|-------------------------------------------------|-------------------------------------------------|
     D|-------------------------------------------------|-------------------------------------------------|
     A|-7-----7--7-----7--7--7--7--7--7--7--7--7--7--7--|-3-----3--3-----3--3--3--3--3--3--3--3--3--3--3--|
     E|-------------------------------------------------|-------------------------------------------------|
 
Gtr.1E|-------------------------------------------------|-------------------------------------------------|
     H|-------------------------------------------------|-------------------------------------------------|
     G|-------------------------------------------------|-------------------------------------------------|
     D|-------9--------7--------------9--------7--------|-------10--------7-------------10-------7--------|
     A|-7--------9-------10--9--7-h9-----9--10---10--9--|-8--------10-------10--8--7-h8----8--10---10--8--|
     E|-------------------------------------------------|-------------------------------------------------|
      |                                                 |                                                 |
Bass G|-------------------------------------------------|-------------------------------------------------|
     D|-------------------------------------------------|-------------------------------------------------|
     A|-------------------------------------------------|-5-----5--5-----5--5--5--5--5--5--5--5--5--5--5--|
     E|-5-----5--5-----5--5--5--5--5--5--5--5--5--5--5--|-------------------------------------------------|
 
Gtr.1E|-------------------------------------------------|-------------------------------------------------|
     H|-------------------------------------------------|-------------------------------------------------|
     G|-------------------------------------------------|-------------------------------------------------|
     D|-------9--------7--------------9--------7--------|-------9--------7--------------9--------7--------|
     A|-7--------9-------10--9--7-h9-----9--10---10--9--|-7--------9-------10--9--7-h9-----9--10---10--9--|
     E|-------------------------------------------------|-------------------------------------------------|
      |                                                 |                                                 |
Bass G|-------------------------------------------------|-------------------------------------------------|
     D|-------------------------------------------------|-------------------------------------------------|
     A|-7-----7--7-----7--7--7--7--7--7--7--7--7--7--7--|-3-----3--3-----3--3--3--3--3--3--3--3--3--3--3--|
     E|-------------------------------------------------|-------------------------------------------------|
 
Gtr.1E|-------------------------------------------------|-------------------------------------------------|
     H|-------------------------------------------------|-------------------------------------------------|
     G|-------------------------------------------------|-------------------------------------------------|
     D|-------9--------7--------------9--------7--------|-------10--------7-------------10-------7--------|
     A|-7--------9-------10--9--7-h9-----9--10---10--9--|-8--------10-------10--8--7-h8----8--10---10--8--|
     E|-------------------------------------------------|-------------------------------------------------|
      |                                                 |                                                 |
Bass G|-------------------------------------------------|-------------------------------------------------|
     D|-------------------------------------------------|-------------------------------------------------|
     A|-------------------------------------------------|-------------------------------------------------|
     E|-5-----5--5-----5--5--5--5--5--5--5--5--5--5--5--|-1-----1--1-----1--1--1--1--1--1--1--1--1--1--1--|

SOLO:

(4:50 - 5:22)

PART A: (Terentiev's lead)

Gtr.1E|-----------------------------------------------------------------|-----------------------------------------------------------------|
     H|-9-------------9~~~~~~~~~~~~~~~~~~~~~~~~~~~~~~~~~----------------|-------------------------------------------------------------9---|
     G|----------------------------------------------------------9h11p9p|p8-------9---8---------------------------------------------------|
     D|-----------------------------------------------------------------|-----------------9-------11~~~~~~~~~~~~~~~~~~~~~~~~--------------|
     A|-----------------------------------------------------------------|-----------------------------------------------------------------|
     E|-----------------------------------------------------------------|-----------------------------------------------------------------|
      |                                                                 |                                                                 |
Gtr.2G|-----------------------------------------------------------------|-----------------------------------------------------------------|
     D|-----------------------------------------------------------------|-----------------------------------------------------------------|
     A|-4-------4---4-------4---4-------4---4---4---4---4-------2-------|-----------------------------------------------------------------|
     E|-----------------------------------------------------------------|-5-------5---5-------5---5-------5---5---5---5---5--------4------|
 
Gtr.1E|-9---12---9---11---9-----------------------------------------------|-11h12p11p9---------------------------------------------------------|
     H|--------------------12---9---10---9-------------------------------|------------12--10--10--10--9---------------------------------------|
     G|------------------------------------11---9---8---9b11r9b11r9-----|-------------------------------11--13p11p9--------11b13rel11...p9---|
     D|-----------------------------------------------------------------|-------------------------------------------11-----------------------|
     A|-----------------------------------------------------------------|-----------------------------------------------------------------|
     E|-----------------------------------------------------------------|-----------------------------------------------------------------|
      |                                                                 |                                                                 |
Gtr.2G|-----------------------------------------------------------------|-----------------------------------------------------------------|
     D|-----------------------------------------------------------------|-----------------------------------------------------------------|
     A|-----------------------------------------------------------------|-------------------------4---4---4---6---6---6---7---7---6---6---|
     E|-2-------2---2-------2---2-------2---2---2---2---2-------4-------|-5---5---5--/7---7---7-------------------------------------------|
 
Gtr.1E|-----------------------------------------------------------------|--------------------------------------------17h19-19bendto21-------|
     H|-----------------------------------------------------------------|----------------------------17h19p17---17h19-17h19----------------------|
     G|------------------------------------------------------6-/8-h9h11-|------11/13h14h16-13h14h16/18------18------------------------------|
     D|-11~~~~~~~~~~~~~~~~~-----------------------------6-/9------------|-11/14------------------------------------------------------------|
     A|-----------------------------------------------------------------|-----------------------------------------------------------------|
     E|-----------------------------------------------------------------|-----------------------------------------------------------------|
      |                                                                 |                                                                 |
Gtr.2G|-----------------------------------------------------------------|-----------------------------------------------------------------|
     D|-----------------------------------------------------------------|-----------------------------------------------------------------|
     A|-4-------4---4-------4---4-------4---4---4---4---4-------2-------|-----------------------------------------------------------------|
     E|-----------------------------------------------------------------|-5-------5---5-------5---5-------5---5---5---5---5--------4------|
 
Gtr.1E|-14------------------16------------------------------------------|-------------------------------------17----------14--------------|
     H|-17b19rel17--14-h17----------------------14~~~~~~~~~~~~~~~~~~~~~~|(14)~~~~~~~~~~~~~~~~~~~~~~~~~----------------------------17------|
     G|-----------------------------------------------------------------|-----------------------------------------------------------------|
     D|-----------------------------------------------------------------|-----------------------------------------------------------------|
     A|-----------------------------------------------------------------|-----------------------------------------------------------------|
     E|-----------------------------------------------------------------|-----------------------------------------------------------------|
      |                                                                 |                                                                 |
Gtr.2G|-----------------------------------------------------------------|-----------------------------------------------------------------|
     D|-----------------------------------------------------------------|-------------------------4-----------7-----------4---------------|
     A|--------------------------------------------------------/7-------|-5-----------7-------------------------------------------7-------|
     E|-2-------2---2-------2---2-------2---2---2---2---2---------------|-----------------------------------------------------------------|
 
Gtr.1E|-16------14-p12--------------------------------------------------|-------------------------------------------------------------14h17p|
     H|-----------------14----  dive w/tremolo bar  --------------------|---------------------------------------------- T -----14-14h17-----|
     G|-----------------------------------------------------------------|-13----------16-p13--16-p13--16~~~~~~~\--------18p13h16------------|
     D|-----------------------------------------------------------------|-----------------------------------------------------------------|
     A|-----------------------------------------------------------------|-----------------------------------------------------------------|
     E|-----------------------------------------------------------------|-----------------------------------------------------------------|
      |                                                                 |                                                                 |
Gtr.2G|-----------------------------------------------------------------|-----------------------------------------------------------------|
     D|-----------------------------------------------------------------|-----------------------------------------------------------------|
     A|-4-------4---4-------4---4-------4---4---4---4---4-------2-------|-----------------------------------------------------------------|
     E|-----------------------------------------------------------------|-5-------5---5-------5---5-------5---5---5---5---5--------4------|
 
Gtr.1E|-p16----------14p12----------------------------------------------|-12--------------------------------------------------------------|
     H|--------------------14----------------------------------------12-|----9------------------------------------------------------------|
     G|-------------------------13p11-------------------------11h12h13---|---------9-------------------------------------------------------|
     D|------------------------------11~~~~~~~~~~~------11h14-----------|-----------------9-----------------------------------------------|
     A|-----------------------------------------------------------------|-------------------------11-----<11>~~~~~~~~~~~~~~~--------------|
     E|-----------------------------------------------------------------|-----------------------------------------------------------------|
      |                                                                 |                                                                 |
Gtr.2G|-----------------------------------------------------------------|-----------------------------------------------------------------|
     D|-----------------------------------------------------------------|-----------------------------------------------------------------|
     A|-----------------------------------------------------------------|-------------------------4---4---4---6---6---6---7---7---6---6---|
     E|-2-------2---2-------2---2-------2---2---2---2---2-------4-------|-5---5---5--/7---7---7-------------------------------------------|
 
Gtr.1E|-------------------------------------------------11--11--9--11---|-12---9---9---11---9-----------------------------------------------|
     H|---------------------------------11--9---------------------------|----------------------9b10rel9-----------------------------------|
     G|-----------------11--9-------------------11--9-------------------|-------------------------------9b11...rel9-p-8~~~~~~~~~~~~-------|
     D|-11--9-------------------11--9-----------------------------------|-----------------------------------------------------------------|
     A|---------11--9---------------------------------------------------|-----------------------------------------------------------------|
     E|-----------------------------------------------------------------|-----------------------------------------------------------------|
      |                                                                 |                                                                 |
Gtr.2G|-----------------------------------------------------------------|-----------------------------------------------------------------|
     D|-----------------------------------------------------------------|-----------------------------------------------------------------|
     A|-4-------4---4-------4---4-------4---4---4---4---4-------2-------|-----------------------------------------------------------------|
     E|-----------------------------------------------------------------|-5-------5---5-------5---5-------5---5---5---5---5--------4------|
 
Gtr.1E|------------------------------------------------------/-11h12h14p12p11-|-----------------------------------------------------------------|
     H|----------------------------------------10h12h14p10----------------14p12-------14p12----------------------------------------------------|
     G|-------------------------9h11h13-9h11h13-------------------------|--------------14-13-- dive w/tremolo bar ------------------------|
     D|---------9h11h13-9h11h13-----------------------------------------|-----------------------------------------------------------------|
     A|-9h11h12---------------------------------------------------------|-----------------------------------------------------------------|
     E|-----------------------------------------------------------------|-----------------------------------------------------------------|
      |                                                                 |                                                                 |
Gtr.2G|-----------------------------------------------------------------|-----------------------------------------------------------------|
     D|-----------------------------------------------------------------|-------------------------4-----------7-----------4---------------|
     A|--------------------------------------------------------/7-------|-5-----------7-------------------------------------------5-------|
     E|-2-------2---2-------2---2-------2---2---2---2---2---------------|-----------------------------------------------------------------|

(5:23 - 5:56)

PART B: (Holstinin's lead)

Gtr.1E|-------------------------------------------------|-------------------------------------------------|
     H|-----------10bend12----10bend12----10bend12rel10-|-8-----------------------7--8--7-----7-----------|
     G|-------------------------------------------------|-------9-----9-----7--9-----------9-----9--7--5--|
     D|-------------------------------------------------|-------------------------------------------------|
     A|-------------------------------------------------|-------------------------------------------------|
     E|-------------------------------------------------|-------------------------------------------------|
      |                                                 |                                                 |
Gtr.2G|-------------------------------------------------|-------------------------------------------------|
  +  D|-9-----------9-----------9-----------9-----7-----|-5-----------5-----------5-----------5-----4-----|
bass A|-7-----------7-----------7-----------7-----5-----|-3-----------3-----------3-----------3-----2-----|
     E|-------------------------------------------------|-------------------------------------------------|
 
Gtr.1E|-------------------------------------------------|-------------------------------------------------|
     H|-------------------------------------------------|-------------------------------------------------|
     G|-7--5--4--5--4-----4-----------------------------|-------------------------------------------------|
     D|----------------7-----7--5--7--5p4p0-5p4p0-4-----|-------4-p0--4--5--4--5--7-p0--4--5--4--5--4-----|
     A|----------------------------------------------7--|-5--7-----------------------------------------5--|
     E|-------------------------------------------------|-------------------------------------------------|
      |                                                 |                                                 |
Gtr.2G|-------------------------------------------------|-------------------------------------------------|
  +  D|-------------------------------------------------|-7-----------7-----------7-----------7-----7-----|
bass A|-7-----------7-----------7-----------7-----5-----|-5-----------5-----------5-----------5-----5-----|
     E|-5-----------5-----------5-----------5-----3-----|-------------------------------------------------|
 
Gtr.1E|-------------------------------------14bend15..hold...rel14-12-------------------------------------|
     H|-----------------------------------------------bend------------15-14-15p14p12--12----------------------|
     G|-------------------------------------------------|-------------------------14---14-12-11-12-14-12-11-|
     D|-------------------------------------------------|-------------------------------------------------|
     A|-7-----------------------------------------------|-------------------------------------------------|
     E|-------------------------------------------------|-------------------------------------------------|
      |                                                 |                                                 |
Gtr.2G|-------------------------------------------------|-------------------------------------------------|
 +   D|-9-----------9-----------9-----------9-----7-----|-5-----------5-----------5-----------5-----4-----|
bass A|-7-----------7-----------7-----------7-----5-----|-3-----------3-----------3-----------3-----2-----|
     E|-------------------------------------------------|-------------------------------------------------|
 
Gtr.1E|-------------------------------------------------|-------------------------14~~~/------15~~~/------|
     H|-------------------------------------12----13----|-15~~~/------17~~~/------------------------------|
     G|----11-------------11----12----14----------------|------- tremolo picking (?) ---------------------|
     D|-14----14-12-14----------------------------------|-------------------------------------------------|
     A|-------------------------------------------------|-------------------------------------------------|
     E|-------------------------------------------------|-------------------------------------------------|
      |                                                 |                                                 |
Gtr.2G|-------------------------------------------------|-------------------------------------------------|
 +   D|-------------------------------------------------|-------------------------------------------------|
bass A|-7-----------7-----------7-----------7-----5-----|-3-----------3-----------3----------------/8-----|
     E|-5-----------5-----------5-----------5-----3-----|-1-----------1-----------1-----------1-----------|
 
Gtr.1E|-17bend19-----17~~~~~~---15h17p15p14-14h15p14----------|-14bend15----------------------------------------|
     H|----------------------------------------17p15-17-|-------------------17-17-17-15-15-15-15-13-13-13-|
     G|-------------------------------------------------|-------------------------------------------------|
     D|-------------------------------------------------|-------------------------------------------------|
     A|-------------------------------------------------|-------------------------------------------------|
     E|-------------------------------------------------|-------------------------------------------------|
      |                                                 |                                                 |
Gtr.2G|-------------------------------------------------|-------------------------------------------------|
 +   D|-9-----------9-----------9-----------9-----7-----|-5-----------5-----------5-----------5-----4-----|
bass A|-7-----------7-----------7-----------7-----5-----|-3-----------3-----------3-----------3-----2-----|
     E|-------------------------------------------------|-------------------------------------------------|
 
Gtr.1E|-------------------------------------------------|-------------------------------------------------|
     H|-13-12-12-12-12-10-10-10-10----------------------|-------------------------------------------------|
     G|-------------------------------12----11----9-----|-12----------11----------9-----------------------|
     D|-------------------------------------------------|-------------------------------------12----------|
     A|-------------------------------------------------|-------------------------------------------------|
     E|-------------------------------------------------|-------------------------------------------------|
      |                                                 |                                                 |
Gtr.2G|-------------------------------------------------|-------------------------------------------------|
 +   D|-------------------------------------------------|-7-----------7-----------7-----------7-----7-----|
bass A|-7-----------7-----------7-----------7-----5-----|-5-----------5-----------5-----------5-----5-----|
     E|-5-----------5-----------5-----------5-----3-----|-------------------------------------------------|
 
Gtr.1E|-------------------------------------------------|-------------------------------------------------|
     H|-------------------------------------------------|-------------------------------------------------|
     G|-------------------------------------------------|-------------------------------------------------|
     D|-9-----------9--9--9--9--9-----7-----9---7h9p7-\-|-5-----------------------4--5--7-----7---sl------|
     A|-------------------------------------------------|-------7--7--7-----5--7-----------7-----7-\3-----|
     E|-------------------------------------------------|-------------------------------------------------|
      |                                                 |                                                 |
Gtr.2G|-------------------------------------------------|-------------------------------------------------|
 +   D|-9-----------9-----------9-----------9-----7-----|-5-----------5-----------5-----------5-----4-----|
bass A|-7-----------7-----------7-----------7-----5-----|-3-----------3-----------3-----------3-----2-----|
     E|-------------------------------------------------|-------------------------------------------------|
 
Gtr.1E|-------------------------------------------------|-<5>---------------------------------------------|
     H|-------------------------------------0--3--4--5--|------------<5>----------------------------------|
     G|-------------2--0--------0--2--4--5--------------|------------------------<5>----------------------|
     D|-------------------4--5--------------------------|-----  Natural ----------------------------------|
     A|-0--2--3--5--------------------------------------|----- Harmonics ---------------------------------|
     E|-------------------------------------------------|-------------------------------------------------|
      |                                                 |                                                 |
Gtr.2G|-------------------------------------------------|-------------------------------------------------|
 +   D|-------------------------------------------------|-------------------------------------------------|
bass A|-7-----------7-----------7-----------7-----5-----|-3-----------3-----------3----------------/8-----|
     E|-5-----------5-----------5-----------5-----3-----|-1-----------1-----------1-----------1-----------|

(5:56 - 6:13) Repeat RIFF 4A

(6:13 - 6:29)

RIFF 5: (play 2 times)

Gtr.1E||-2-------0---2-------0---2---3---|-2-------0---2-------0---2---3---|
Gtr.2H||-3-------2---3-------2---3---3---|-3-------2---3-------2---3---3---|
     G||---------------------------------|---------------------------------|
     D||---------------------------------|---------------------------------|
     A||- D -----------------------------|---------------------------------|
     E||---------------------------------|---------------------------------|
      ||                                 |                                 |
Bass G||---------------------------------|---------------------------------|
     D||---------------------------------|---------------------------------|
     A||-5---5-5---5-5---5-5-5-5-5---5---|-3---3-3---3-3---3-3-3-3-3---3---|
     E||---------------------------------|---------------------------------|
 
Gtr.1E|--1-------0---1-------0---1---3---|-1-------0---1-------0---1---3---||
Gtr.2H|--1-------0---1-------0---1---3---|-1-------0---1-------0---1---3---||
     G|----------------------------------|---------------------------------||
     D|----------------------------------|---------------------------------||
     A|-- Bbsus2 ------------------------|---------------------------------||
     E|----------------------------------|---------------------------------||
      |                                  |                                 ||
Bass G|----------------------------------|---------------------------------||
     D|----------------------------------|---------------------------------||
     A|--1---1-1---1-1---1-1-1-1-1---1---|-3---3-3---3-3---3-3-3-3-3---3---||
     E|----------------------------------|---------------------------------||

(6:29 - 6:45) Repeat the CHORUS  with RIFF 5; bass plays something more complicated.

(6:46 - 7:02)

RIFF 5': (play 2 times)

Gtr.1E||-2-------0---2-------0---2---3---|-2-------0---2-------0---2---3---|
Gtr.2H||-3-------2---3-------2---3---3---|-3-------2---3-------2---3---3---|
     G||---------------------------------|---------------------------------|
     D||---------------------------------|---------------------------------|
     A||- D -----------------------------|---------------------------------|
     E||---------------------------------|---------------------------------|
      ||                                 |                                 |
Bass G||---------------------------------|---------------------------------|
     D||---------------------------------|---------------------------------|
     A||-5-------------------------------|-3-------------------------------|
     E||---------------------------------|---------------------------------|
 
Gtr.1E|--1-------0---1-------0---1---3---|-1-------0---1-------0---1---3---||
Gtr.2H|--1-------0---1-------0---1---3---|-1-------0---1-------0---1---3---||
     G|----------------------------------|---------------------------------||
     D|----------------------------------|---------------------------------||
     A|-- Bbsus2 ------------------------|---------------------------------||
     E|----------------------------------|---------------------------------||
      |                                  |                                 ||
Bass G|----------------------------------|---------------------------------||
     D|----------------------------------|-----------------7-5---5---------||
     A|--1-------------------------------|-3-------------------8---8-7-8---||
     E|----------------------------------|---------------------------------||

(7:02 - 7:13)

RIFF 6:

Gtr.2E|---------------------------------|---------------------------------|
     H|---------------------------------|---------------------------------|
     G|---------------------------------|---------------------------------|
     D|-------------------------6---7---|-------------------------7---7---|
     A|-5-5---5-7---7-8---8-8-----------|-5-5-5-5-------------------------|
     E|---------------------------------|---------8---8-6---6-6-----------|
Gtr.2E|---------------------------------|---------------------------------|
     H|---------------------------------|---------------------------------|
     G|---------------------------------|---------------------------------|
     D|-------------------------6---7---|-------------------------7---7---|
     A|-5-5---5-7---7-8---8-8-----------|-5-5-5-5-------------------------|
     E|---------------------------------|---------8---8-6---6-6-----------|
Gtr.2E|---------------------------------|
     H|---------------------------------|
     G|-7---7---------------------------|
     D|-7---7---------------------------|
     A|-5---5---------------------------|
     E|---------------------------------|

 






                       


Copyright © Музыкальный Портал на Куличках 1999-2007      music@kulichki.com


    Stolica.ru    
Реклама в Интернет