Stolica.ru Реклама на Куличках     

Аккорды песен:
A B C D E F G H I J K L M N O P Q R S T U V W X Y Z
АБВГДЕЖЗИКЛМНОПРСТУФХЦЧШЩЭЮЯ





Тексты песен :     A B C D E F G H I J K L M N O P Q R S T U V W X Y Z #

ПОЛНЫЙ СПИСОК ПЕСЕН ГРУППЫ




-->



АРИЯ   

Дезертир
--------
tabbed by Vladimir Gelfand ("Little Prince")

Tempo: slow (85 bpm)

(0:01 - 0:31)

INTRO:

Synth = Synthesizer arranged for guitar (play one octave higher; the left-hand chords are also shown):

SynthE|-FGA----------5---5---6---8---8---|-----6---5-----------5---6---6---|
     H|----------------------------------|-------------8-------------------|
     G|----------------------------------|---------------------------------|
     D|----------------------------------|-Gm------------------------------|
     A|----------------------------------|---------------------------------|
     E|----------------------------------|---------------------------------|


SynthE|------5---------------------------|---------------------------------|
     H|----------8---6-------8---10--10--|-----------------8---------------|
     G|----------------------------------|---------------------------------|
     D|--Dm------------------------------|-C-------------------------------|
     A|----------------------------------|---------------------------------|
     E|----------------------------------|---------------------------------|


SynthE|-FGA--5---5---5-------6---8---8---|-----6---5-----------5---6---6---|
     H|----------------------------------|-------------8-------------------|
     G|----------------------------------|---------------------------------|
     D|----------------------------------|-Gm------------------------------|
     A|----------------------------------|---------------------------------|
     E|----------------------------------|---------------------------------|


SynthE|------5---------------------------|-----------------13--------------|
     H|----------8---6-------8---10--9---|---------------------------------|
     G|----------------------------------|---------------------------------|
     D|--Dm------------------------------|-C#------------------------------|
     A|----------------------------------|---------------------------------|
     E|----------------------------------|---------------------------------|


SynthE|----------------------------------|-----------------12--------------|
     H|--9---------------6---8---9---8---|---------------------------------|
     G|----------------------------------|---------------------------------|
     D|----------------------------------|-C-------------------------------|
     A|----------------------------------|---------------------------------|
     E|----------------------------------|---------------------------------|


SynthE|----------------------------------|
     H|--8-------8-------8---8---6---6---|
     G|----------------------------------|
     D|----------------------------------|
     A|----------------------------------|
     E|----------------------------------|

Tempo: slightly faster (95 bpm)

(0:31 - 0:49)

RIFF 1:

Gtr.1E|---- 7/4 measure ----------------------------------------|
Gtr.2H|---------------------------------------------------------|
     G|---------2-----------3-----------0-----------2---------2-|
     D|-0---0-0-3---0---0-0-5---0---0-0-2---0---0-0-3---0-2-3---|
     A|-.---.-.->---.---.-.->---.---.-.->---.---.-.->---.-.-.-.-|
     E|---------------------------------------------------------|


Gtr.1E|---- 7/4 measure ----------------------------------------|
Gtr.2H|---------------------------------------------------------|
     G|---------2-----------3-----------0-----------2---------2-|
     D|-0---0-0-3---0---0-0-5---0---0-0-2---0---0-0-3---0-2-3---|
     A|-.---.-.->---.---.-.->---.---.-.->---.---.-.->---.-.-.-.-|
     E|---------------------------------------------------------|


Gtr.1E|---- 7/4 measure ----------------------------------------|
Gtr.2H|---------------------------------------------------------|
     G|---------2-----------3-----------0-----------2---------2-|
     D|-0---0-0-3---0---0-0-5---0---0-0-2---0---0-0-3---0-2-3---|
     A|-.---.-.->---.---.-.->---.---.-.->---.---.-.->---.-.-.-.-|
     E|---------------------------------------------------------|


Gtr.1E|---- 7/4 measure ----------------------------------------|
Gtr.2H|---------------------------------------------------------|
     G|---------2-----------3-----------0-------2-0-------------|
     D|-0---0-0-3---0---0-0-5---0---0-0-2---0---3-2-3-2-3-2-0-0-|
     A|---------------------------------------------5-3-5-3-1-5-|
     E|---------------------------------------------------------|

(0:49 - 1:10)

RIFF 1A:

Gtr.1E|---- 7/4 measure ----------------------------------------|
Gtr.2H|---------------------------------------------------------|
     G|---------2-----------3-----------0-----------2---------2-|
     D|(0)--0-0-3---0---0-0-5---0---0-0-2---0---0-0-3---0-2-3---|
     A|(5)--.-.->---.---.-.->---.---.-.->---.---.-.->---.-.-.-.-|
     E|---------------------------------------------------------|


Gtr.1E|---- 7/4 measure ----------------------------------------|
Gtr.2H|---------------------------------------------------------|
     G|---------2-----------3-----------0-----------2---------2-|
     D|-0---0-0-3---0---0-0-5---0---0-0-2---0---0-0-3---0-2-3---|
     A|-.---.-.->---.---.-.->---.---.-.->---.---.-.->---.-.-.-.-|
     E|---------------------------------------------------------|


Gtr.1E|---- 7/4 measure ----------------------------------------|
Gtr.2H|---------------------------------------------------------|
     G|---------2-----------3-----------0-----------2---------2-|
     D|-0---0-0-3---0---0-0-5---0---0-0-2---0---0-0-3---0-2-3---|
     A|-.---.-.->---.---.-.->---.---.-.->---.---.-.->---.-.-.-.-|
     E|---------------------------------------------------------|


Gtr.1E|---- 7/4 measure ----------------------------------------|
Gtr.2H|---------------------------------------------------------|
     G|--------<2>----------3-----------0-------2-0-------------|
     D|-0---0-0-3---0---0-0-5---0---0-0-2---0---3-2-3-2-3-2-----|
     A|-.---.-.->-------.-.->-------.-.->---.-------5-3-5-3-5-7-|
     E|-----------------------------------------------------6-5-|


Gtr.1E|---- 4/4 measure ----------------|
Gtr.2H|---------------------------------|
     G|---------------------------------|
     D|---------------------------------|
     A|-(7)~~~~~~~~~~~--------sl----sl--|
     E|-(5)~~~~~~~~~~~---------//x--\\--|

Measure changes to normal (4/4).

(1:10 - 1:30)

VERSE 1:

VoiceE|---------------------------------------------------------------------------------------------------|
     H|---------------------------------------------------------------------------------------------------|
     G|---------------------------------------------------------------------------------------------------|
     D|----------5--7---------7-7----7----8-7----5----------------5--7-7----7----8-7----5-----------------|
     A|-5-7----8-----------------------------------8------5---7-8-----------------------------------------|
     E|Utro v dekabre        tuma - nom   oku - tano,    pod nogami belyy sneg preda - tel'  -------------|
      |                                                 |                                                 |
Gtr. E|-------------------------------------------------|-------------------------------------------------|
     H|-------------------------------------------------|-------------------------------------------------|
     G|-------7-----R-----7-----R-----7-----R-----7-----|-R-----7-----R-----7-----R-----5-----------------|
     D|-------7-----E-----7-----E-----7-----E-----7-----|-E-----7-----E-----7-----E-----5-----------------|
     A|-5-----5-----S-----5-----S-----5-----S-----5-----|-S-----5-----S-----5-----S-----3-----------------|
     E|-------------T-----------T-----------T-----------|-T-----------T-----------T-----------------------|
 
VoiceE|---------------------------------------------------------------------------------------------------|
     H|---------------------------------------------------------------------------------------------------|
     G|---------------------------------------------------------------------------------------------------|
     D|-----------5----7-----7--7----7-8----7-5-----------------------------------------------------------|
     A|-5-7---8------------------------------------8------8--7--5--3--5--3--1--0--------------------------|
     E|Viden kazhdyy sled,   i ho - lodu  lyuto - mu     slishkom prosto sladit' s toboy.  -----------------------|
      |                                                 |                                                 |
Gtr. E|-------------------------------------------------|-------------------------------------------------|
     H|-------------------------------------------------|-------------------------------------------------|
     G|-------7-----R-----7-----R-----7-----R-----7-----|-------------------------------------------------|
     D|-------7-----E-----7-----E-----7-----E-----7-----|----------------------7--------------------------|
     A|-5-----5-----S-----5-----S-----5-----S-----5-----|-8--7--5-----5--------7-----------sl.---sl.down--|
     E|-------------T-----------T-----------T-----------|----------8-----8--6--5------------//x---\\------|
 
VoiceE|---------------------------------------------------------------------------------------------------|
     H|---------------------------------------------------------------------------------------------------|
     G|---------------------------------------------------------------------------------------------------|
     D|-------------5--7-----7--7----7---8---7--5-----------------5--7-7---7-----8---7--5-----------------|
     A|-5----7--8---------------------------------8-------5---7-8-----------------------------------------|
     E|Vse trudney dyshat' pronzi - tel'nym vozduhom,   vse trudnee nebu slat' proklyatya  ---------------|
      |                                                 |                                                 |
Gtr. E|-------------------------------------------------|-------------------------------------------------|
     H|-------------------------------------------------|-------------------------------------------------|
     G|-------7-----R-----7-----R-----7-----R-----7-----|-R-----7-----R-----7-----R-----5-----------------|
     D|-------7-----E-----7-----E-----7-----E-----7-----|-E-----7-----E-----7-----E-----5-----------------|
     A|-5-----5-----S-----5-----S-----5-----S-----5-----|-S-----5-----S-----5-----S-----3-----------------|
     E|-------------T-----------T-----------T-----------|-T-----------T-----------T-----------------------|
 
VoiceE|---------------------------------------------------------------------------------------------------|
     H|---------------------------------------------------------------------------------------------------|
     G|---------------------------------------------------------------------------------------------------|
     D|-------------5--7-----7---7--7---8--7--5-----------------------------------------------------------|
     A|-5----7--8---------------------------------8-------8--7--5--3--5--3--1--0--------------------------|
     E|Vse trudney bezhat', polzhizni  ty  otdal by,    chtob  zabyt' tot boy za  spinoy. ------------------------|
      |                                                 |                                                 |
Gtr. E|-------------------------------------------------|-------------------------------------------------|
     H|-------------------------------------------------|-------------------------------------------------|
     G|-------7-----R-----7-----R-----7-----R-----7-----|-------------------------------------------------|
     D|-------7-----E-----7-----E-----7-----E-----7-----|----------------------7--------------------------|
     A|-5-----5-----S-----5-----S-----5-----S-----5-----|-8--7--5-----5--------7--------------------------|
     E|-------------T-----------T-----------T-----------|----------8-----8--6--5--------------------3--5--|

(1:30 - 1:40)

BRIDGE:
             Ty  teper'              desertir.                Vne  zakona, zna - ay,   pravdy ne nayti.   
Gtr. E|-------------------------------------------------|-------------------------------------------------|
     H|-------------------------------------------------|-------------------------------------------------|
     G|----R-----------------------R--------------------|----R--------------5-----------------------------|
     D|----E-----------------------E--------------------|----E--------------5-----------------------------|
     A|----S--------------------3--S-----------------3--|-5--S--------------3-----------------------------|
     E|-6--T--------------5--6-----T--------------6-----|----T--------------------------6--5--3--1--3--5--|
             Ty  teper'             prosto tzel'             dlya  takih zhe  smertyu  mechenyh parney.
Gtr. E|-------------------------------------------------|-------------------------------------------------|
     H|-------------------------------------------------|-------------------------------------------------|
     G|----R-----------------------R--------------------|----R--------------5-----------------------------|
     D|----E-----------------------E--------------------|----E--------------5-----------------------------|
     A|----S--------------------3--S-----------------3--|-5--S--------------3-----------------------------|
     E|-6--T--------------5--6-----T--------------6-----|----T--------------------------?--?--?-----------|

(1:40 - 2:08)

CHORUS:

VoiceE|--5----------5--5----6----8---8--------6---5-----------5----6---6--|
     H|-----------------------------------------------8-------------------|
     G|-------------------------------------------------------------------|
     D|-------------------------------------------------------------------|
     A|-------------------------------------------------------------------|
     E|- O  -  o!   Kakim  bu - det zav  -  trashniy den'   v e - tom mi- |
      |                                 |                                 |
Gtr. E|-5---------------5---------------|-5---------------5---------------|
     H|-----6---------------6-----------|-----6---------------6-----------|
     G|---------5---------------5-------|---------5---------------5-------|
     D|-------------7---------------7---|-------------7---------------7---|
     A|---------------------------------|---------------------------------|
     E|---------------------------------|---------------------------------|
      |                                 |                                 |
Bass G|---------------------------------|---------------------------------|
     D|---------------------------------|---------------------------------|
     A|-8---8---8---8-8-8-8-8---8---8-8-|-7---7---7---7-7-7-7-7---7---7-7-|
     E|---------------------------------|---------------------------------|
 
VoiceE|----5--------------------------------------------------------------|
     H|--------8----6-------8---10--10--------------------8---------------|
     G|-------------------------------------------------------------------|
     D|-------------------------------------------------------------------|
     A|-------------------------------------------------------------------|
     E| -ire  bol'shom      i  vrazhdeb        -         nom ?!    -------|
      |                                 |                                 |
Gtr. E|-5---------------5---------------|---------------------------------|
     H|-----6---------------6-----------|---------------------------------|
     G|---------5---------------5-------|---------------------------------|
     D|-------------7---------------7---|-----5-5-5-5-----5-----5-----5---|
     A|---------------------------------|-----3-3-3-3---0-3---0-3---0-3---|
     E|---------------------------------|---------------------------------|
      |                                 |                                 |
Bass G|---------------------------------|---------------------------------|
     D|---------------------------------|---------------------------------|
     A|-6---6---6---6-6-6-6-6---6---6---|-3---------------3-----3-----3---|
     E|---------------------------------|---------------------------------|
 
VoiceE|--5----------5---5---6---8---8--------6---5------------5---6--6----|
     H|-----------------------------------------------8-------------------|
     G|-------------------------------------------------------------------|
     D|-------------------------------------------------------------------|
     A|-------------------------------------------------------------------|
     E| Kto       proydyot po  burlya  -  schey vo - de,    kto  napras - |
      |                                 |                                 |
Gtr. E|-5---------------5---------------|-5---------------5---------------|
     H|-----6---------------6-----------|-----6---------------6-----------|
     G|---------5---------------5-------|---------5---------------5-------|
     D|-------------7---------------7---|-------------7---------------7---|
     A|---------------------------------|---------------------------------|
     E|---------------------------------|---------------------------------|
      |                                 |                                 |
Bass G|---------------------------------|---------------------------------|
     D|---------------------------------|---------------------------------|
     A|-8---8---8---8-8-8-8-8---8---8-8-|-7---7---7---7-7-7-7-7---7---7-7-|
     E|---------------------------------|---------------------------------|
 
VoiceE|----5--------------------------------------------------------------|
     H|--------8----6-------8---10--9-------------------------------------|
     G|-------------------------------------------------------------------|
     D|-------------------------------------------------------------------|
     A|-------------------------------------------------------------------|
     E| - no  raspnet      sam  sebya  -  a...    ------------------------|
      |                                 |                                 |
Gtr. E|-5---------------5---------------|-4-------------------------------|
     H|-----6---------------6-----------|---------- ??? ------------------|
     G|---------5---------------5-------|---------------------------------|
     D|-------------7---------------7---|---------------------------------|
     A|---------------------------------|---------------------------------|
     E|---------------------------------|---------------------------------|
      |                                 |                                 |
Bass G|---------------------------------|---------------------------------|
     D|---------------------------------|---------3-------3---3-----------|
     A|-6---6---6---6-6-6-6-6---6---6---|-4---4-4-----4-----4-----4---4---|
     E|---------------------------------|---------------------------------|
 
                                                                                                              RIFF 1A ->
VoiceE|-------------------------------------------------------------------|---------------------------------|-------
     H|----------------6----8---9---8-------------------------------------|----------------8----8---6----6--|-------
     G|-------------------------------------------------------------------|---------------------------------|-7-----
     D|-------------------------------------------------------------------|---------------------------------|-------
     A|-------------------------------------------------------------------|---------------------------------|-------
     E|--------------  E - to  sud'ba..    -------------------------------|--------------- E - to  sud'-ba  - a.. --
      |                                 |                                 |                                 |
Bass G|---------------------------------|---------------------------------|---------------------------------|-------
     D|---------3-------3---3-----------|---------2-------2---2-----------|--------/12------10------8-------|-------
     A|-4---4-4-----4-----4-----4---4---|-3---3-3-----3-----3-----3---3---|-3---3-----------------------8-\-|-5-----
     E|---------------------------------|---------------------------------|---------------------------------|-------

(2:08 - 2:29) Repeat RIFF 1A

(2:29 - 2:49) VERSE 2

(2:50 - 3:00) BRIDGE

(3:00 - 3:28) CHORUS

Measure changes to 3/4. Every measure is 3/4 from here to the beginning of PartB of the Solo.

(3:28 - 3:57)

RIFF 2: (*4 times w/keyboard effects)

BassG||----------10-------------------------|----------10-------------------------||
    D||-12----12----12-10-------------------|-12----12----12-10-------------------||
    A||-------------------12----11----10----|-------------------12----11----10----||
    E||-------------------------------------|-------------------------------------||

Repeat RIFF 2 (*4 times) with guitar joining:

Bass G|----------10-------------------------|----------10-------------------------|
     D|-12----12----12-10-------------------|-12----12----12-10-------------------|
     A|-------------------12----11----10----|-------------------12----11----10----|
     E|-------------------------------------|-------------------------------------|
      |                                     |                                     |
Gtr. E|-------------------------------------|-------------------------------------|
     H|-15----------------------------------|-17----------------18----------------|
     G|-------------------------------------|-------------------------------------|
     D|-------------------------------------|-------------------------------------|
     A|-------------------------------------|-------------------------------------|
     E|-------------------------------------|-------------------------------------|
 
Bass G|----------10-------------------------|----------10-------------------------|
     D|-12----12----12-10-------------------|-12----12----12-10-------------------|
     A|-------------------12----11----10----|-------------------12----11----10----|
     E|-------------------------------------|-------------------------------------|
      |                                     |                                     |
Gtr. E|-22----------------------------------|-------------------------------------|
     H|-------------------------------------|-------------------------------------|
     G|-------------------------------------|-------------------------------------|
     D|-------------------------------------|-------------------------------------|
     A|-------------------------------------|-------------------------------------|
     E|-------------------------------------|-------------------------------------|
 
Bass G|----------10-------------------------|----------10-------------------------|
     D|-12----12----12-10-------------------|-12----12----12-10-------------------|
     A|-------------------12----11----10----|-------------------12----11----10----|
     E|-------------------------------------|-------------------------------------|
      |                                     |                                     |
Gtr. E|-------------------------------------|-------------------------------------|
     H|-15----------------------------------|-17----------------18----------------|
     G|-------------------------------------|-------------------------------------|
     D|-------------------------------------|-------------------------------------|
     A|-------------------------------------|-------------------------------------|
     E|-------------------------------------|-------------------------------------|
 
Bass G|----------10-------------------------|----------10-------------------------|
     D|-12----12----12-10-------------------|-12----12----12-10-------------------|
     A|-------------------12----11----10----|-------------------12----11----10----|
     E|-------------------------------------|-------------------------------------|
      |                                     |                                     |
Gtr. E|-18----------------------------------|-------------------------------------|
     H|-------------------------------------|-------------------------------------|
     G|-------------------------------------|-------------------------------------|
     D|-------------------------------------|-------------------------------------|
     A|-------------------------------------|-------------------------------------|
     E|-------------------------------------|-------------------------------------|

(3:58 - 4:27)

RIFF 3 (with wah-pedal):

   line A( *2 times ):

        E||--------------------------------------|-------------------------------------||
        H||--------------------------------------|-------------------------------------||
        G||--------------------------------------|-------------------------------------||
        D||-----------7--------------------------|----------7--------------------------||
        A||--8--8--8-----8-p7--------------------|-8--8--8-----8-p7--------------------||
        E||--------------------8-----7-----6-----|-------------------8-----7-----6-----||

   line B( *2 times ):

        E||--------------------------------------|-------------------------------------||
        H||--------------------------------------|-------------------------------------||
        G||-----------7--------------------------|----------7--------------------------||
        D||--8--8--8-----8-p7--------------------|-8--8--8-----8-p7--------------------||
        A||--------------------8-----7-----6-----|-------------------8-----7-----6-----||
        E||--------------------------------------|-------------------------------------||

   repeat line A  ( *2 times ),

   repeat line B,

   line C:

        E|---------------------------------------|-------------------------------------|
        H|---------------------------------------|-------------------------------------|
        G|------------9--------------------------|-----------9-------------------------|
        D|--10-10-10----10-p9--------------------|-10-10-10----10-p9-------------------|
        A|--------------------10-----9-----8-----|-------------------10----11----12----|
        E|---------------------------------------|-------------------------------------|

SOLO:

Tempo: slightly faster (107 bpm)

(4:27 - 4:54)

Part A:

Gtr.1E|-------------------------------------|-------------------------------------|
     H|-------------------------------------|-------------------------------------|
     G|-------7--7--7--7--7--7--7--7--7--7--7bend9--------------------9-----------|
     D|-------------------------------------|-------------------8-h9-----9--8--7--|
     A|-------------------------------------|-------------------------------------|
     E|-------------------------------------|-------------------------------------|
      |                                     |                                     |
Gtr.2E|-------------------------------------|-------------------------------------|
     H|-------------------------------------|-------------------------------------|
     G|-------------------------------------|-------------------------------------|
     D|-------------------------------------|-------------------------------------|
     A|-------------------------------------|-------------------1--2--1-----------|
     E|-0-----0-----0-----2-----2-----2-----|-3-----3-----3--------------2--3--2--|
 
Gtr.1E|-------------------------------------|-A.H.--------------------------------|
     H|-------------------------------------|-------------------------------------|
     G|-------------------------------------|-<7>------\\ press tremolo bar \\----|
     D|-------------------------------------|-------------------------------------|
     A|-10--9--7----------------------------|-------------------------------------|
     E|-------------------------------------|-------------------------------------|
      |                                     |                                     |
Gtr.2E|-------------------------------------|-------------------------------------|
     H|-------------------------------------|-------------------------------------|
     G|-------------------------------------|-------------------------------------|
     D|-------------------------------------|-------------------------------------|
     A|-------------------------------------|-------------------8--------9--------|
     E|-0-----0-----0-----2-----2-----2-----|-3-----3-----3-----6--------7--------|
 
Gtr.1E|-------------------------------------|-------------------------------------|
     H|-------------------------------------|-------------------------------------|
     G|-------7--7--7--7--7--7--7--7--7--7--7b9~~~~~~~----------12----------------|
     D|-------------------------------------|-------------9-------------------14p13-|
     A|-------------------------------------|-------------------------------------|
     E|-------------------------------------|-------------------------------------|
      |                                     |                                     |
Gtr.2E|-------------------------------------|-------------------------------------|
     H|-------------------------------------|-------------------------------------|
     G|-------------------------------------|-------------------------------------|
     D|-------------------------------------|-------------------------------------|
     A|-------------------------------------|-------------------1--2--1-----------|
     E|-0-----0-----0-----2-----2-----2-----|-3-----3-----3--------------2--3--2--|
 
Gtr.1E|-------------------------------------|-------------------------------------|
     H|-------------12-15-12----------------|-12-15-12----------------12-15-12----|
     G|----12-14-15----------15-14-12-14-15-|----------15-14-12-14-15----------15-|
     D|-14----------------------------------|-------------------------------------|
     A|-------------------------------------|-------------------------------------|
     E|-------------------------------------|-------------------------------------|
      |                                     |                                     |
Gtr.2E|-------------------------------------|-------------------------------------|
     H|-------------------------------------|-------------------------------------|
     G|-------------------------------------|-------------------------------------|
     D|-------------------------------------|-------------------5--------4--------|
     A|-------------------------------------|-------------------3--------2--------|
     E|-0-----0-----0-----2-----2-----2-----|-3-----3-----3-----------------------|
 
Gtr.1E|-------------------------------------|-------------------------------------|
     H|-------------------------12-12-------|------------------15b17--------------|
     G|-14---------12h14p12-------------14b16-|-14----12----------------------------|
     D|-------------------14----------------|-------------14----------------------|
     A|-------------------------------------|-------------------------------------|
     E|-------------------------------------|-------------------------------------|
      |                                     |                                     |
Gtr.2E|-------------------------------------|-------------------------------------|
     H|-------------------------------------|-------------------------------------|
     G|-------------------------------------|-------------------------------------|
     D|-------------------------------------|-------------------1--2--1-----------|
     A|-0-----0-----0-----2-----2-----2-----|-3-----3-----3--------------2--3--2--|
     E|-------------------------------------|-------------------------------------|
 
Gtr.1E|-----12----12----12----12----12-12h14-15-|-15b17-------------------------------|
     H|-15bf--15bf--15bf--15bf--15bf--------|-------------------------------------|
     G|-------------------------------------|-------------------------------------|
     D|-------------------------------------|-------------------------------------|
     A|-------------------------------------|-------------------------------------|
     E|-------------------------------------|-------------------------------------|
      |                                     |                                     |
Gtr.2E|-------------------------------------|-------------------------------------|
     H|-------------------------------------|-------------------------------------|
     G|-------------------------------------|-------------------------------------|
     D|-------------------------------------|-------------------8--------9--------|
     A|-0-----0-----0-----2-----2-----2-----|-3-----3-----3-----6--------7--------|
     E|-------------------------------------|-------------------------------------|
 
Gtr.1E|-15----12----------------------12----|-15----14----17----------------------|
     H|-------------12----------12----------|-------------------16----------------|
     G|------------------14bf---------------|-------------------------------------|
     D|-------------------------------------|-------------------------------------|
     A|-------------------------------------|-------------------------------------|
     E|-------------------------------------|-------------------------------------|
      |                                     |                                     |
Gtr.2E|-------------------------------------|-------------------------------------|
     H|-------------------------------------|-------------------------------------|
     G|-------------------------------------|-------------------------------------|
     D|-------------------------------------|-------------------------------------|
     A|-------------------------------------|-------------------1--2--1-----------|
     E|-0-----0-----0-----2-----2-----2-----|-3-----3-----3--------------2--3--2--|
 
Gtr.1E|--17b19-----------17b19--------------|-17b19-------------------------------|
     H|-------------------------------------|-------------------------------------|
     G|-------------------------------------|-------------------------------------|
     D|-------------------------------------|-------------------------------------|
     A|-------------------------------------|-------------------------------------|
     E|-------------------------------------|-------------------------------------|
      |                                     |                                     |
Gtr.2E|-------------------------------------|-------------------------------------|
     H|-------------------------------------|-------------------------------------|
     G|-------------------------------------|-------------------------------------|
     D|-------------------------------------|-------------------5--------4--------|
     A|-------------------------------------|-------------------3--------2--------|
     E|-0-----0-----0-----2-----2-----2-----|-3-----3-----3-----------------------|

Tempo: slightly slower (95 bpm)

Measure changes to 4/4.

(4:54 - 5:13)

Part B: (not sure in gtr.1 part here)

Gtr.1E|-------------------------------------------------|-------------------------------------------------|
     H|-------------------------------------------------|-------------------------------------------------|
     G|-------------------------------------------------|-------------------------------------------------|
     D|-------------------------------------------------|-12-----12p10-12p10-12p10-12p10------------------|
     A|-13~~~~~~~~~~~~----------------------------------|--------------------------------13-\\tremolo bar-|
     E|-------------------------------------------------|-------------------------------------------------|
      |                                                 |                                                 |
Gtr.2E|-------------------------------------------------|-------------------------------------------------|
     H|-------------------------------------------------|-------------------------------------------------|
     G|-------------------------------------------------|-------------------------------------------------|
     D|-3-----------------------------------------------|-5--7--------------------------------5-----4-----|
     A|-1-----------------------------------------------|-3--5--------------------------------3-----2-----|
     E|-------------------------------------------------|-------------------------------------------------|
 
Gtr.1E|-------------------------------------------------|-------------------------------------------------|
     H|-------------------------------------------------|-------------------------------------------------|
     G|-------------------------------------------------|-12p10-12p10-12p10-12p10-15p10---\\tremolo bar---|
     D|-------------------------------------------------|-------------------------------------------------|
     A|-13~~~~~~~~~~~~--------------\\tremolo bar-------|-------------------------------------------------|
     E|-------------------------------------------------|-------------------------------------------------|
      |                                                 |                                                 |
Gtr.2E|-------------------------------------------------|-------------------------------------------------|
     H|-------------------------------------------------|-------------------------------------------------|
     G|-------------------------------------------------|-------------------------------------------------|
     D|-3-----------------------------------------------|-5--7--------------------------------5-----4-----|
     A|-1-----------------------------------------------|-3--5--------------------------------3-----2-----|
     E|-------------------------------------------------|-------------------------------------------------|
 
Gtr.1E|-------------------------------------------------|-------------------------------------------------|
     H|-------------------------------------------------|-13b15-13b15-13b15-13b15-13b15-13b15-------------|
     G|-------------------------------------------------|-12b14-12b14-12b14-12b14-12b14-12b14-------------|
     D|-------------------------------------------------|-------------------------------------------------|
     A|-13~~~~~~~~~~~~----------------------------------|-------------------------------------------------|
     E|-------------------------------------------------|-------------------------------------------------|
      |                                                 |                                                 |
Gtr.2E|-------------------------------------------------|-------------------------------------------------|
     H|-------------------------------------------------|-------------------------------------------------|
     G|-------------------------------------------------|-------------------------------------------------|
     D|-3-----------------------------------------------|-5--7--------------------------------5-----4-----|
     A|-1-----------------------------------------------|-3--5--------------------------------3-----2-----|
     E|-------------------------------------------------|-------------------------------------------------|
 
Gtr.1E|-------------------------------------------------|
     H|-------------------------------------------------|
     G|-------------------------------------------------|
     D|-------------------------------------------------|
     A|-13~~~~~~~~~~~~----------------------------------|
     E|-------------------------------------------------|
      |                                                 |
Gtr.2E|-------------------------------------------------|
     H|-------------------------------------------------|
     G|-------------------------------------------------|
     D|-3-----------------------------------------------|
     A|-1-----------------------------------------------|
     E|-------------------------------------------------|

Measure changes to 3/4.

(5:13 - 5:17)

RIFF 4:

Gtr.1E|-------------------------------------|-------------------------------------|
     H|-------------------------------------|-------------------------------------|
     G|-7--7--7--7--7--7--7--7--7--7--7--7--|-7--6--5-----------7--6--5-----------|
     D|-------------------------------------|----------7--6--5-----------7--6--5--|
     A|-------------------------------------|-------------------------------------|
     E|-------------------------------------|-------------------------------------|

(5:17 - 5:50)

RIFF 3' (RIFF 3 with a slight variation in the end):

        line A (*2 times), line B (*2 times), line A (*2 times), line B, line C,

        and then line D:

        E|---- 9/8 measure ------- ritenuto ----------------------|
        H|--------------------------------------------------------|
        G|--------------------------------------------------------|
        D|--8-----9-----10----------------------5-----6-----7-----|
        A|--------------------7-----8-----9-----------------------|
        E|--------------------------------------------------------|

Measure changes to normal (4/4).

(5:50 - 6:26)

VERSE 3:

  Utro v dekabre        tuma - nom   oku - tano,    vozrodilos' iz nochnogo pra - ha.
E|-------------------------------------------------|-------------------------------------------------|
H|-------------------------------------------------|-------------------------------------------------|
G|-------7-----R-----7-----R-----7-----R-----7-----|-R-----7-----R-----7-----R-----5-----------------|
D|-------7-----E-----7-----E-----7-----E-----7-----|-E-----7-----E-----7-----E-----5-----------------|
A|-5-----5-----S-----5-----S-----5-----S-----5-----|-S-----5-----S-----5-----S-----3-----------------|
E|-------------T-----------T-----------T-----------|-T-----------T-----------T-----------------------|

  Oborvalsya sled,   i  s kazhdoy   minu - toyu    vse temney tainstvenyy les.  
E|-------------------------------------------------|-------------------------------------------------|
H|-------------------------------------------------|-------------------------------------------------|
G|-------7-----R-----7-----R-----7-----R-----7-----|-------------------------------------------------|
D|-------7-----E-----7-----E-----7-----E-----7-----|----------------------7--------------------------|
A|-5-----5-----S-----5-----S-----5-----S-----5-----|-8--7--5-----5--------7-----------sl.---sl.down--|
E|-------------T-----------T-----------T-----------|----------8-----8--6--5------------//x---\\------|

  Ty lezhish' v snegah,    bez rodu  bez  ple - meni,    puleyu  ubit, a mozhet stra - hom.             V
E|-------------------------------------------------|-------------------------------------------------|
H|-------------------------------------------------|-------------------------------------------------|
G|-------7-----R-----7-----R-----7-----R-----7-----|-R-----7-----R-----7-----R-----5-----------------|
D|-------7-----E-----7-----E-----7-----E-----7-----|-E-----7-----E-----7-----E-----5-----------------|
A|-5-----5-----S-----5-----S-----5-----S-----5-----|-S-----5-----S-----5-----S-----3-----------------|
E|-------------T-----------T-----------T-----------|-T-----------T-----------T-----------------------|

 ledyanyh tzepyah    ty  stal vechnym plenni - kom, a dusha bluzhdaet gde-to, a dusha  bluzhda - yet gde-to, 
E|-------------------------------------------------|-----------------------------ritenuto--------------------|
H|-------------------------------------------------|---------------------------------------------------------|
G|-------7-----R-----7-----R-----7-----R-----7-----|---------------------------------------------------------|
D|-------7-----E-----7-----E-----7-----E-----7-----|---------------------------------------------------------|
A|-5-----5-----S-----5-----S-----5-----S-----5-----|-8--7--5-----5-----------8---7---5-------5---------------|
E|-------------T-----------T-----------T-----------|----------8-----8--6--5--------------8-------8---6---5---|

    a    du - sha   bluzh - da - yet     gde  -  to       zdes' .............       
E|-------------------------------------------------------|---------------------------------------------------|
H|-------------------------------------------------------|---------------------------------------------------|
G|-------------------------------------------------------|--7------------------------------------------------|
D|-------------------------------------------------------|--7------------------------------------------------|
A|--8-----7-----5-----------5----------------------------|--5------------------------------------------------|
E|--------------------8------------8------6-------5------|---------------------------------------------------|


 






                       


Copyright © Музыкальный Портал на Куличках 1999-2007      music@kulichki.com


    Stolica.ru    
Реклама в Интернет