Stolica.ru Реклама на Куличках     

Аккорды песен:
A B C D E F G H I J K L M N O P Q R S T U V W X Y Z
АБВГДЕЖЗИКЛМНОПРСТУФХЦЧШЩЭЮЯ





Тексты песен :     A B C D E F G H I J K L M N O P Q R S T U V W X Y Z #

ПОЛНЫЙ СПИСОК ПЕСЕН ГРУППЫ




-->




АРИЯ   

                               Kровь зa кровь
                               --------------

This tab was originally provided by Vladimir Ostapchuk (http://www.geocities.com/hollywood/set/7129/)
Corrected and added by Little Prince (http://metalscript.homestead.com)

INTRO:

Tempo: slow (65 bpm)

(0:01 - 0:31)

RIFF 1: (acoustic guitar)
E|--------------------------------------------------|-------------------------------------------------|
H|--8-----7h8p7-------------------------------------|-7-----5h7p5-------------------------------------|
G|--9-----------9-----7-----9-----------------------|-7-----------7-----5-----8-----------------------|
D|--9-----------------------10----------------------|-7-----------------------9-----------------------|
A|--------------------------10----------------------|-------------------------9-----------------------|
E|--------------------------------------------------|-------------------------------------------------|


E|--------------------------------------------------|-------------------------------------------------|
H|--8-----7h8p7-------8-----10----8-----------------|-7--8--7--8--7h8p7-------------------------------|
G|--9-----------9-----------9-----------9-----------|-7-----------------7-----9-----------------------|
D|--9-----------------------10----------10----------|-7-----------------------9-----------------------|
A|--------------------------------------10----------|-------------------------10----------------------|
E|--------------------------------------------------|-------------------------------------------------|


E|--------------------------------------------------|-------------------------------------------------|
H|--8-----7h8p7-------------------------------------|-7-----5h7p5-------------------------------------|
G|--9-----------9-----7-----9-----------------------|-7-----------7-----5-----8-----------------------|
D|--9-----------------------10----------------------|-7-----------------------9-----------------------|
A|--------------------------10----------------------|-------------------------9-----------------------|
E|--------------------------------------------------|-------------------------------------------------|


E|--------------------------------------------------|------------------------ ritenuto ---------------|
H|--8-----7h8p7-------8-----10----8-----------------|-7--8--7--8--7h8p7-------------------------------|
G|--9-----------9-----------9-----------9-----------|-7-----------------7-----------------------------|
D|--9-----------------------10----------10----------|-7-----------------------------------------------|
A|--------------------------------------10----------|-------------------------------------------------|
E|--------------------------------------------------|-------------------------------------------------|

Tempo: faster (115 bpm)

(0:31 - 0:51)

RIFF 2: (Gtr.2 - distorted)

Gtr.2E|-------------------------------------------------|-------------------------------------------------|
     H|-------------------------------------------------|-------------------------------------------------|
     G|-------------------------------------------------|-------------------------------------------------|
     D|-7-----------8-----------7-----------------------|-------------------------------------------------|
     A|----8--5--------8--5--------8--5-----------5--5--|----5--7--8--8--7--5-----5-----5--5--5-----5--5--|
     E|-------------------------------------------------|-8--------------------8--------------------------|


Gtr.2E|-------------------------------------------------|-------------------------------------------------|
     H|-------------------------------------------------|-------------------------------------------------|
     G|-------------------------------------------------|-------------------------------------------------|
     D|-7-----------8-----------7-----------------------|-------------------------------------------------|
     A|----8--5--------8--5--------8--5-----------5--5--|----5--7--8--8--7--5-----------------------------|
     E|-------------------------------------------------|-8--------------------8--5-----5--5--5-----5--5--|


Gtr.2E|-------------------------------------------------|-------------------------------------------------|
     H|-------------------------------------------------|-------------------------------------------------|
     G|-------------------------------------------------|-------------------------------------------------|
     D|-7-----------8-----------7-----------------------|-------------------------------------------------|
     A|----8--5--------8--5--------8--5-----------5--5--|----5--7--8--8--7--5-----5-----5--5--5-----5--5--|
     E|-------------------------------------------------|-8--------------------8--------------------------|


Gtr.2E|-------------------------------------------------|-------------------------------------------------|
     H|-------------------------------------------------|-------------------------------------------------|
     G|-------------------------------------------------|-------------------------------------------------|
     D|-7-----------8-----------7-----------------------|-------------------------------------------------|
     A|----8--5--------8--5--------8--5-----------5--5--|----5--7--8--8--7--5-----------7--7--7-----7--7--|
     E|-------------------------------------------------|-8--------------------8--5-----5--5--5-----5--5--|
                                                                          Drev - 

Gtr.2E|----------- 6/4 measure -------------------------------------------------|
     H|-------------------------------------------------------------------------|
     G|-------------------------------------------------------------------------|
     D|-------------------------------------------------------------------------|
     A|-7-----7--7--7-----7--7--7-----7--7--7-----7--7--7--7--7--7--7--7--5-----|
     E|-5-----5--5--5-----5--5--5-----5--5--5-----5--5--5--5--5--5--5--5--3-----|

(0:51 - 1:24)

VERSE 1:

VoiceE|-------------------------------------------------------------------------------------------------------|
     H|-------------------------------------------------------------------------------------------------------|
     G|-------------------------------------------------------------------------------------------------------|
     D|---5----5---5-5-5-8-------5-5---5---5-8-----8--8---8-7----------------------------------------------5--|
     A|-----------------------5-------------------------------------------------------------------------------|
     E| -niy grad Ierusalim  dovleyet nad toboy,  Pontiy Pilat.                                           Ty- |
      |                         |                         |                         |                         |
Gtr.1E|-------------------------|-------------------------|-------------------------|----------------6--5h6p5-|
Gtr.2H|-------------------------|-------------------------|-------------------------|-------------------------|
     G|-------------------------|-------------------------|-------------------------|-------------------------|
     D|-------------------------|-------------------------|-------------------8--7--|-------8--5--------------|
     A|-(5)---------------------|-------------------------|-7-----8--7--------------|-------------------------|
     E|-(3)---------------------|-------------------------|-5-----------------------|-------------------------|
 
VoiceE|-------------------------------------------------------------------------------------------------------|
     H|-------------------------------------------------------------------------------------------------------|
     G|-------------------------------------------------------------------------------------------------------|
     D|----5-5---5--5--5----8------5----5---5--5-8-----8--7-----8-7-----8-----7-------------------------------|
     A|-------------------------5-----------------------------------------------------7-----------------------|
     E|-y gotov sorvatsa v Rim,mahnut' na vse rukoy,  zabrav s soboy   sol - da   -   at.   ------------------|
      |                         |                         |                         |                         |
Gtr.1E|-------------------------|-------------------------|-------------------------|----------------6--5h6p5-|
Gtr.2H|-------------------------|-------------------------|-------------------------|-------------------------|
     G|-------------------------|-------------------------|-------------------------|-------------------------|
     D|-------------------------|-------------------------|-------------------8--7--|-------8--5--------------|
     A|-5-----------------------|-------------------------|-7-----8--7--------------|-------------------------|
     E|-3-----------------------|-------------------------|-5-----------------------|-------------------------|
 
VoiceE|-------------------------------------------------------------------------------------------------------|
     H|-------------------------------------------------------------------------------------------------------|
     G|-------------------------------------------------------------------------------------------------------|
     D|--4-4--4--4--7-7---4-------------------------4----4--5---5---5---5-----8---8--5------------------------|
     A|-------------------------------------------------------------------------------------------------------|
     E| Ty ustal ot etih litz,                      ot chuzhoy ne - iskren - ney zemli  ----------------------|
      |                         |                         |                         |                         |
Gtr.1E|-------------------------|-------------------------|-------------------------|-------------------------|
Gtr.2H|-------------------------|-----4/5---------4/5-----|-------------------------|-----4/5---------4/5-----|
     G|-------------------------7\6---------7\6-----------|-------------------------6/7---------6/7-----------|
     D|-------------------------|-------------------------|-------------------------|-------------------------|
     A|-4-----------------------|-------------------------|-5-----------------------|-------------------------|
     E|-2-----------------------|-------------------------|-3-----------------------|-------------------------|
 
VoiceE|-------------------------------------------------------------------------------------------------------|
     H|-------------------------------------------------------------------------------------------------------|
     G|-------------------------------------------------------------------------------------------------------|
     D|--4----4-4-4---7-----7-4-----------------------------5--5--5-5----8-8----------5-----------7-----------|
     A|-------------------------------------------------------------------------------------------------------|
     E| Bol' tupaya byot v visok,                        dnyu mucheniy  vypal       sroooooooo  - ok ---------|
      |                         |                         |                         |                         |
Gtr.1E|-------------------------|-------------------------|-------------------------|-------------------------|
Gtr.2H|-------------------------|-----4/5---------4/5-----|-------------------------|-------------------------|
     G|-------------------------7\6---------7\6-----------|-------------------------|-------------------------|
     D|-------------------------|-------------------------|-------------------------|-------------------------|
     A|--4----------------------|-------------------------|-5-----------------------|-------------------------|
     E|--2----------------------|-------------------------|-3-----------------------|-3-----------5-----------|

(1:24 - 1:44)

CHORUS played with RIFF 2:

  Krov'       za         krov'      -       v  tom  volya  ne  lyudey  a  bogov
E|-------------------------------------------------|-------------------------------------------------|
H|-------------------------------------------------|-------------------------------------------------|
G|-------------------------------------------------|-------------------------------------------------|
D|-7-----------8-----------7-----------------------|-------------------------------------------------|
A|----8--5--------8--5--------8--5-----------5--5--|----5--7--8--8--7--5-----5-----5--5--5-----5--5--|
E|-------------------------------------------------|-8--------------------8--------------------------|

 Smert'       za         smert'      -        ty  dolzhen  ne  roptat' a terpet'
E|-------------------------------------------------|-------------------------------------------------|
H|-------------------------------------------------|-------------------------------------------------|
G|-------------------------------------------------|-------------------------------------------------|
D|-7-----------8-----------7-----------------------|-------------------------------------------------|
A|----8--5--------8--5--------8--5-----------5--5--|----5--7--8--8--7--5-----------------------------|
E|-------------------------------------------------|-8--------------------8--5-----5--5--5-----5--5--|

 Zdes'       tvoy          ad       -        ty  znayesh', net  doro-ogi  nazad 
E|-------------------------------------------------|-------------------------------------------------|
H|-------------------------------------------------|-------------------------------------------------|
G|-------------------------------------------------|-------------------------------------------------|
D|-7-----------8-----------7-----------------------|-------------------------------------------------|
A|----8--5--------8--5--------8--5-----------5--5--|----5--7--8--8--7--5-----5-----5--5--5-----5--5--|
E|-------------------------------------------------|-8--------------------8--------------------------|

  Pey        svoy         yad        -      pey,   prokurator   Pontiy    Pila    -     aaaaaaaaaaa -
E|-------------------------------------------------|-------------------------------------------------|
H|-------------------------------------------------|-------------------------------------------------|
G|-------------------------------------------------|-------------------------------------------------|
D|-7-----------8-----------7-----------------------|-------------------------------------------------|
A|----8--5--------8--5--------8--5-----------5--5--|----5--7--8--8--7--5-----------7--7--7-----7--7--|
E|-------------------------------------------------|-8--------------------8--5-----5--5--5-----5--5--|

    - aaaaaaaaaaaaaaaa  -  at!
E|------------- 6/4 measure -----------------------------------------------|
H|-------------------------------------------------------------------------|
G|-------------------------------------------------------------------------|
D|-------------------------------------------------------------------------|
A|-7-----7--7--7-----7--7--7-----7--7--7-----7--7--7--7--7--7--7--7--5-----|
E|-5-----5--5--5-----5--5--5-----5--5--5-----5--5--5--5--5--5--5--5--3-----|
 
(1:44 - 2:17) VERSE 2

(2:17 - 2:37) CHORUS

Tempo: slower (74 bpm)

(2:37 - 3:03)

RIFF 3, there are 2 guitars and bass playing together:
     E|------------------------------------------------------------------|
Gtr.1H|--8---7-------7---8---7-------7---8---7-------7---8---------------|
Gtr.2G|--9---7---9---7---9---7---9---7---9---7---9---7---9---------------|
     D|----------9---------------9---------------9-----------------------|
     A|------------------------------------------------------------------|
     E|------------------------------------------------------------------|
      |                                                                  |
Bass G|------------------------------------------------------------------|
     D|--------------------------9---------------------------------------|
     A|--7-------------------7-------------------------------------------|
     E|------------------------------7---8-----------------------7---8---|
 
     E|------------------------------------------------------------------|
Gtr.1H|--7---5-------5---7---5-------5---7---5-------5---7---------------|
Gtr.2G|--7---5---7---5---7---5---7---5---7---5---7---5---7---------------|
     D|----------9---------------9---------------9-----------------------|
     A|------------------------------------------------------------------|
     E|------------------------------------------------------------------|
      |                                                                  |
Bass G|------------------------------------------------------------------|
     D|--------------------------7-----------------------9---------------|
     A|--5-------------------5-------------------------------9-------5---|
     E|------------------------------5---7-----------7-----------7-------|
 
     E|------------------------------------------------------------------|
Gtr.1H|--8---7-------7---8---7-------8--10--12--10---8---10--8-----------|
Gtr.2G|--9---7---9---7---9---7---9---7---9--11--9h11p9\7---9---7---11--9---|
     D|----------9---------------9-------------------------------9---7---|
     A|------------------------------------------------------------------|
     E|------------------------------------------------------------------|
      |                                                                  |
Bass G|------------------------------------------------------------------|
     D|--------------------------9---------------------------------------|
     A|--7-------------------7-------------------------------------------|
     E|------------------------------7---8-----------------------7---8---|
 
     E|------------------------------------------------------------------|
Gtr.1H|--7---8---7---8---7-----------------------------------------------|
Gtr.2G|--7---9---7---9---7-------7-------9-------------------------------|
     D|--------------------------7-------9-------------------------------|
     A|------------------------------------------------------------------|
     E|------------------------------------------------------------------|
      |                                                                  |
Bass G|------------------------------------------------------------------|
     D|------------------------------------------------------------------|
     A|--5-----------------------5-------7-------5---6---7-----0h5---6---|
     E|--------------------------------------7---------------7-----------|
 
Gtr.1E|--7---5-------5---7---5-------5---7---5-------5---7---------------|
Gtr.2H|--8---7---8---7---8---7---8---7---8---7---8---7---8---------------|
     G|----------9---------------9---------------9-----------------------|
     D|------------------------------------------------------------------|
     A|------------------------------------------------------------------|
     E|------------------------------------------------------------------|
      |                                                                  |
Bass G|------------------------------------------------------------------|
     D|--------------------------9---------------------------------------|
     A|--7-------------------7-------------------------------------------|
     E|------------------------------7---8-----------------------7---8---|
 
Gtr.1E|--5---------------5---------------5---------------5---------------|
Gtr.2H|--7---8---7---8---7---8---7---8---7---8---7---8---7---------------|
     G|------9---7---9-------9---7---9-------9---7---9-------------------|
     D|------------------------------------------------------------------|
     A|------------------------------------------------------------------|
     E|------------------------------------------------------------------|
      |                                                                  |
Bass G|------------------------------------------------------------------|
     D|--------------------------7-----------------------9---------------|
     A|--5-------------------5-------------------------------9-------5---|
     E|------------------------------5---7-----------7-----------7-------|
 
Gtr.1E|--7---5-------5---7---5-------7---8--10--8h10p8\7---8---7-----------|
Gtr.2H|--8---7---8---7---8---7---8---8--10--12--10---8---10--8---10--8---|
     G|----------9---------------9-------------------------------11--9---|
     D|------------------------------------------------------------------|
     A|------------------------------------------------------------------|
     E|------------------------------------------------------------------|
      |                                                                  |
Bass G|------------------------------------------------------------------|
     D|--------------------------9---------------------------------------|
     A|--7-------------------7-------------------------------------------|
     E|------------------------------7---8-----------------------7---8---|
 
Gtr.1E|--5---7---5---7---5-----------------------------------------------|
Gtr.2H|--7---8---7---8---7-------7-------8-------------------------------|
     G|--------------------------7-------9-------------------------------|
     D|------------------------------------------------------------------|
     A|------------------------------------------------------------------|
     E|------------------------------------------------------------------|
      |                                                                  |
Bass G|--------------------------------------R---------------------------|
     D|------------------------------------5-E-----------5---------------|
     A|--5-------------------------------7---S---------7-------------5---|
     E|--------------------------------------T---------------0---8-------|

(3:03 - 3:29)

INTERLUDE: (also there's synthesizer (?) )

VoiceE|--------------------------------------------------------------------|
     H|----8-7------------------------------7------------------------------|
     G|---------9------------------------------9----7----------------------|
     D|------------9----10-----------------------------7---9---------------|
     A|--------------------------------------------------------------------|
     E|-V serebristyy  son                 ty by s nim ushyol   -----------|
      |                                  |                                 |
Bass G|----------------------------------|---------------------------------|
     D|--------------9-------------------|-------------7-----------9-------|
     A|--7---------7---------------------|-5---------5---------------9---5-|
     E|----------------7-8-----------7-8-|---------------5-7-----7-----7---|
 
VoiceE|--------------------------------------------------------------------|
     H|--8--7---------8---10--8------------7----8--7-8-----7---------------|
     G|----------9------------------9---------------------------7---9------|
     D|--------------------------------------------------------------------|
     A|--------------------------------------------------------------------|
     E|-po do - ro - ge  vechnyh zvyozd   nad prostorom stro - gih gor. ---|
      |                                  |                                 |
Bass G|----------------------------------|--------------------R------------|
     D|--------------9-------------------|------------------5-E----5-------|
     A|--7---------7---------------------|-5---------------7--S---7------5-|
     E|----------------7-8-----------7-8-|--------------------T------0-8---|
 
VoiceE|---7---5---7-5----7-------------------------------------------------|
     H|------------------------------------10--8----7------7---------------|
     G|-----------------------------------------------9--------------------|
     D|--------------------------------------------------------------------|
     A|--------------------------------------------------------------------|
     E|- Ty  by  pered  nim               na  ko - leni vstal,  -----------|
      |                                  |                                 |
Bass G|----------------------------------|---------------------------------|
     D|--------------9-------------------|-------------7-----------9-------|
     A|--7---------7---------------------|-5---------5---------------9---5-|
     E|----------------7-8-----------7-8-|---------------5-7-----7-----7---|
 
VoiceE|--------------------------------------------------------------------|
     H|--8--7---------8---10--8------------7----8--7------8---7------------|
     G|----------9------------------9-------------------------------7------|
     D|--------------------------------------------------------------------|
     A|--------------------------------------------------------------------|
     E| ne stydyas' ni slov  ni  slyoz:   kto lyubil  -  tot  i    ras  -  |
      |                                  |                                 |
Bass G|----------------------------------|---------------------------------|
     D|--------------9-------------------|---------------------------------|
     A|--7---------7---------------------|-5-------------------------------|
     E|----------------7-8---------------|---------------------------------|

Tempo: faster (110 bpm)

(3:29 - 3:38)

VoiceE|------------------------------------------------------------------------|
     H|------------------------------------------------------------------------|
     G|---9--------------------------------------------------------------------|
     D|------------------------------------------------------------------------|
     A|------------------------------------------------------------------------|
     E| pyal ...... -----------------------------------------------------------|
      |                                                                        |
Bass G|------------------|-----------------|-----------------|-----------------|
     D|------------------|-----------------|-----------------|-----------------|
     A|--4---4---4---4---|-4---4---4---4---|-4---4---4---4---|-4---4---4---4---|
     E|------------------|-----------------|-----------------|-----------------|

(3:38 - 4:48)

ACOUSTIC SOLO: (bass keeps playing C# on every quarter)

E|--4h5p4\2-4-----------------------|-------------------------4-5-7-5-|
H|----------------------------------|-------------------4-5-7---------|
G|----------------------------------|-----------------6---------------|
D|----------------------------------|---------------6-----------------|
A|----------------------------------|---------------------------------|
E|----------------------------------|---------------------------------|


E|--4-------------------------------|---------------------------------|
H|----7-5-4---5-4-------------------|---------------------------------|
G|----------6-----6-4\\-----2-------|---------2h4p2-------------------|
D|----------------------------------|---------4-----------------------|
A|----------------------------------|-0-------------------------------|
E|----------------------------------|---------------------------------|


E|--------------2-4-5-5/7---5-4-----|---------------------------------|
H|--------2-4-5-----------------7---|-(7)-----------------------------|
G|--2---4---------------------------|---------------------------------|
D|--4-4-----------------------------|---------------------------------|
A|----------------------------------|---------------------------------|
E|----------------------------------|---------------------------------|


E|----------------------------------|---------------------------------|
H|--4h5p4\2-4-----------------------|---------------------------------|
G|----------------------------------|---------------------------------|
D|----------------------------------|---------------------------------|
A|----------------------------------|---------------------------------|
E|----------------------------------|---------------------------------|


E|----------4---4-4h5p4\2-2/4-------|-------------------------4-5-7-5-|
H|----------5-----------------------|-------------------4-5-7---------|
G|----------6-----------------------|-----------------6---------------|
D|----------------------------------|---------------6-----------------|
A|----------------------------------|------------4--------------------|
E|----------------------------------|---------------------------------|


E|--4-------------------------------|---------------------------------|
H|----7-5-4-------------------------|---------2h4p2-------------------|
G|----------6-4---------------------|---------2-----------------------|
D|--------------7-6-4-----4---------|---------2-----------------------|
A|--------------------6-4-6---------|---------0-----------------------|
E|----------------------------------|---------------------------------|


E|----------------------------------|---------------------------------|
H|--4-------------------4-4h5-4---4-|--------------4h5--4-----4-------|
G|--4-----------------6---------6---|-4--------------------6-----4----|
D|--4-------------------------------|-------------------------------4-|
A|--2-------------------------------|---------------------------------|
E|----------------------------------|---------------------------------|


E|------------------0---------------|--4------------------------------|
H|----------------------------------|--5-\\\--------------------------|
G|------------------6---------------|--6-\\\- sl. down ---------------|
D|--6-------------------------------|---------------------------------|
A|----------------------------------|---------------------------------|
E|----------------------------------|---------------------------------|


E|--4-----2-4-----4p2-2p0-----4-2p0-2-|-2h4-0h4-2-0-2---2-4-------------|
H|----5-2-----5-2-------2-5---------|-------------4-------5-4-5-4-2---|
G|----------------------------------|-------------------------------1-|
D|----------------------------------|---------------------------------|
A|----------------------------------|---------------------------------|
E|----------------------------------|---------------------------------|


E|----------------------------------|---------------------------------|
H|----------------------------------|-5-5-5---4h5---------------------|
G|--2---------------------------4h6-|-------6-6---6---------------4h6-|
D|------------------1-2-4---4/6-----|---------------4-1-2-4---4/6-----|
A|----------------------------------|---------------------------------|
E|----------------------------------|---------------------------------|


E|----------------------------------|---------7-----------------------|
H|--5-5-5---4h5---4-----------------|---------------4-----7-----5-----|
G|--------6-6---6-------------------|-6h8---6-------------------------|
D|------------------6---------------|---------------------------------|
A|----------------------------------|---------------------------------|
E|----------------------------------|---------------------------------|


E|--------7-------------------------|-4-4-4-4-4---4-4-4-4-4---4-4-4---|
H|--4-----------5-----7-----5---4---|-5-5-5-5-5---4-4-4-4-4---4-4-4---|
G|----------------------------------|-6-6-6-6-6---6-6-6-6-6---6-6-6---|
D|----------------------------------|-6-6-6-6-6---6-6-6-6-6---6-6-6---|
A|----------------------------------|-4-4-4-4-4---4-4-4-4-4---4-4-4---|
E|----------------------------------|---------------------------------|


E|--------2-4---4p2p0-2-4---4p2p0-2-|-2h4-0h4-2---2---2-4-------------|
H|----4-5---------------------------|---------------------5-4-5-4-2---|
G|--6-------------------------------|-------------------------------1-|
D|----------------------------------|---------------------------------|
A|----------------------------------|---------------------------------|
E|----------------------------------|---------------------------------|


E|----------------------------------|---------------------------------|
H|----------------2-5-5-5-2-2h4-----|---------------2-5-5-5-2-2h4-----|
G|--2-------1/2-4-------------------|---------1/2-4-------------------|
D|--1-2-4---------------------------|-1-2-4---------------------------|
A|----------------------------------|---------------------------------|
E|----------------------------------|---------------------------------|


E|----------7-----------------------|-------7-------------------------|
H|----------------5-----7-----5-----|-4-----------4-----7-----5---4---|
G|----------------------------------|---------------------------------|
D|----------------------------------|---------------------------------|
A|----------------------------------|---------------------------------|
E|----------------------------------|---------------------------------|


E|--4-4-4-4-4---4-4-4---------------|---------------------------------|
H|--5-5-5-5-5---4-4-4---------------|---------------------------------|
G|--6-6-6-6-6---6-6-6---6-6-6-6-6-6-|-6---R---------------------------|
D|--6-6-6-6-6---6-6-6---6-6-6-6-6-6-|-6---E---------------------------|
A|--4-4-4-4-4---4-4-4---4-4-4-4-4-4-|-4---S---------------------------|
E|----------------------------------|-----T---------------------------|

Tempo: slightly faster (115 bpm)

(4:48 - 5:05)

RIFF 4: (play 2 times)

E||---------------------------------|---------------------------------|
H||---------------------------------|-------------8-------------------|
G||-7-----------10----------7---7---|---------------------------------|
D||---------------------------------|-8-----------------------8---8---|
A||---------------------------------|---------------------------------|
E||---------------------------------|---------------------------------|


E|----------------------------------|---------------------------------||
H|--------------10------------------|-----------------8b9r8b9r8-------||
G|--9-------------------------------|-------7----10--------------10---||
D|----------------------------------|-8-------------------------------||
A|----------------------------------|---------------------------------||
E|----------------------------------|---------------------------------||

(5:05 - 5:38)

SOLO:

E|-------------------------------------------------|-------------------------------------------------|
H|-12p0--0--13p12p0--12p0--0--13p12p0--12p0--13p0--|-15p0--0--0--12p0--13p0--15p0--0--0--13p0--15p0--|
G|-------------------------------------------------|-------------------------------------------------|
D|-------------------------------------------------|-------------------------------------------------|
A|-------------------------------------------------|-------------------------------------------------|
E|-------------------------------------------------|-------------------------------------------------|


E|-------------------------------------------------|-------------------------------------------------|
H|-15bend17----15~~~~~~~---15-13-12----13-12-------|-------------------------------------------------|
G|----------------------------------14-------14-12-|-11-\9-12-11-9-----------------------------------|
D|-------------------------------------------------|----------------12-10-9--------------------------|
A|-------------------------------------------------|-------------------------12-10-9-----------------|
E|-------------------------------------------------|---------------------------------10--12~~~~~~~---|


E|-------------------------------------------------|-------------------------------------------------|
H|-12-15p12p10--...-----------------------------------|-------------------------------------------------|
G|-------------------------------------------------|-------------------------------------------------|
D|-------------------------------------------------|-------------------------------------------------|
A|-------------------------------------------------|-------------------------------------------------|
E|-------------------------------------------------|-------------------------------------------------|


E|-20p17-20p17-20p17-20p17-20p17-20p17-\17p14-17p14-17p14-17p14-17p14-17p14---\10h14p10-14p10---------------------------------------------------|
H|-------------------------------------------------|--------------15p10-15p10-15p10----------------------------------|
G|-------------------------------------------------|-------------------------------14p11-14p11-14p11-----------------|
D|-------------------------------------------------|------------------------------------------------16p12-16p12-16p12|
A|-------------------------------------------------|-------------------------------------------------|
E|-------------------------------------------------|-------------------------------------------------|
   D5                                                Bb5
E|-------17p13----18p13----17p13----18p13----17p13-|-------17p13----18p13----17p13----18p13----15p12-|
H|-15----------15-------15-------15-------15-------|-15----------15-------15-------15-------15-------|
G|-------------------------------------------------|-------------------------------------------------|
D|-------------------------------------------------|-------------------------------------------------|
A|-------------------------------------------------|-------------------------------------------------|
E|-------------------------------------------------|-------------------------------------------------|
   C5                                                A5 
E|-------15p12----17p12----15p12----17p12----------|----------------------------------------------20b|
H|-13----------13-------13-------13-------13-------|---------------14-14h15p14-16p14-17p14-18p15-19p16-20p17-------|
G|-------------------------------------------------|-14-15-14h15p14h15-----------------------------------|
D|-------------------------------------------------|-------------------------------------------------|
A|-------------------------------------------------|-------------------------------------------------|
E|-------------------------------------------------|-------------------------------------------------|
   D5                                                Bb5
E|(20)b22------20~~~~---18-18-20-17-18-15-17-\13-15-|-15b17~~~~~~~~-p13----13-15p13----13-15p13----13-|
H|-------------------------------------------------|-------------------15----------15----------15----|
G|-------------------------------------------------|-------------------------------------------------|
D|-------------------------------------------------|-------------------------------------------------|
A|-------------------------------------------------|-------------------------------------------------|
E|-------------------------------------------------|-------------------------------------------------|
   C5                                                A5 
E|-15p13----13-15p13----13-15p13----13-15\---------|-------------------------------------------------|
H|-------15----------15----------15----------------|--11----10----8----------------------------------|
G|-------------------------------------------------|--------------------10----9----7-----------------|
D|-------------------------------------------------|-------------------------------------10----8-----|
A|-------------------------------------------------|-------------------------------------------------|
E|-------------------------------------------------|-------------------------------------------------|

(5:39 - 6:04)

RIFF 4': (the second guitar plays chords above the tab)

   D5                                 Bb5
E|----------------------------------|---------------------------------|
H|----------------------------------|-------------8-------------------|
G|--7-----------10----------7---7---|---------------------------------|
D|----------------------------------|-8-----------------------8---8---|
A|----------------------------------|---------------------------------|
E|----------------------------------|---------------------------------|

   C5                                 Bb5
E|----------------------------------|---------------------------------|
H|--------------10------------------|-----------------8b9r8b9r8-------|
G|--9-------------------------------|------7----10---------------10---|
D|----------------------------------|-8-------------------------------|
A|----------------------------------|---------------------------------|
E|----------------------------------|---------------------------------|

   D5                                 Bb5
E|----------------------------------|---------------------------------|
H|----------------------------------|-------------8-------------------|
G|--7-----------10----------7---7---|---------------------------------|
D|----------------------------------|-8-----------------------8---8---|
A|----------------------------------|---------------------------------|
E|----------------------------------|---------------------------------|

   C5                                 Bb5
E|----------------------------------|-----------10----12bhrbhr12-p10--|
H|--------------10------------------|------11---------8b9r8b9r8-------|
G|--9-------------------------------|-12---7----10----------------10--|
D|----------------------------------|-8-------------------------------|
A|----------------------------------|---------------------------------|
E|----------------------------------|---------------------------------|

   Bb5                                Bb5
E|----------------------------------|---------------------------------|
H|-----------------8b9r8b9r8--------|-----------------8b9r8b9r8-------|
G|-------7----10---------------10---|-------7----10--------------10---|
D|--8-------------------------------|--8------------------------------|
A|----------------------------------|---------------------------------|
E|----------------------------------|---------------------------------|


E|-------  6/4 measure  ---------------------------|
H|-------------------------------------------------|
G|-------------------------------------------------|
D|-------------------------------------------------|
A|-7---7-7-7---7-7-7---7-7-7---7-7-7-7-7-7-7-7-5---|
E|-5---5-5-5---5-5-5---5-5-5---5-5-5-5-5-5-5-5-3---|


(6:04 - 6:37) VERSE 3

(6:37 - 7:13) CHORUS for 2 times

Tempo: slow (65 bpm)

(7:13 - 7:39) RIFF 1, slowing down at the end


                               Kровь зa кровь
                               --------------
Tabbed by Ostapchuk Vladimir
Intro :

E-------------------------------------|------------------------------|
H----8---7----------------------------|---7--------------------------|
G---9--------9---7-------9------------|---7---9---7----------8-------|
D--9-------------------10-------------|---7-----------10----9--------|
A--------------------10---------------|--------------------9---------|
E-------------------------------------|------------------------------|

E-------------------------------------|-----------------------------||
H----8---7-------8------10--8---------|--7--8--7--8--7h8p7----------||
G---9--------9---------9-----------9--|--7------------------7-----9-||
D--9-----------------10----------10---|--7-----------------------9--||
A------------------------------10-----|------------------------10---||
E-------------------------------------|-----------------------------||

Main riff :

E-------------------------------------|-----------------------------------|
H-------------------------------------|-----------------------------------|
G-------------------------------------|-----------------------------------|
D--7---------8---------7--------------|-----------------------------------|
A-----8--5------8--5------8--5---5----|--5--5-----5--7--8--7--5h7p5-----5-|
E-------------------------------------|--------8---------------------8----|

E-------------------------------------|-----------------------------------|
H-------------------------------------|-----------------------------------|
G-------------------------------------|-----------------------------------|
D--7---------8---------7--------------|-----------------------------------|
A-----8--5------8--5------8--5---5----|--5--5-----5--7--8--7--5h7p5-------|
E-------------------------------------|--------8---------------------8--5-|

E-------------------------------------|-----------------------------------|
H-------------------------------------|-----------------------------------|
G-------------------------------------|-----------------------------------|
D--7---------8---------7--------------|-----------------------------------|
A-----8--5------8--5------8--5---5----|--5--5-----5--7--8--7--5h7p5--8--5-|
E-------------------------------------|--------8--------------------------|

E-------------------------------------|-----------------------------------|
H-------------------------------------|-----------------------------------|
G-------------------------------------|-----------------------------------|
D--7---------8---------7--------------|---------------------------------7-|
A-----8--5------8--5------8--5---5----|--5--5-----5--7--8--7--5h7p5--8----|
E-------------------------------------|--------8--------------------------|
I verse :
   G5                                   A5
   Ты готов сорвaться в бой....  Понтий Пилaт
E-------------------------------|-----------------------------------------|
H-------------------------------|---------------------------------11--10--|
G-------------------------------|-----------------------------------------|
D---5---------------------------|----------7----------8--7----------------|
A---5---------------------------|----------7----8--7--------8--7----------|
E---3---------------------------|----------5------------------------------|

   F#5                   G5
   Ты устaл от этих лиц, от чужой неискренней земли...

Chorus :   main riff

If you have any corrections and additions please send me.
vova@southmap.comcent.nikolaev.ua

--------------------------------------------------------------------------

                            Blood for blood (intro)
                                   ARIA
by Moskalkov Dmitry



      Em                         C                   Adim
E||---3----2h-3p-2------------|--0----------------|--2----0h-2p-0------------|
B||---0-------------5----3----|--1----------------|--1-------------3----1----|
G||*--0-----------------------|--0----------------|--2-----------------------|
D||*--2-----------------------|--2----------------|--1-----------------------|
A||---2-----------------------|--3----------------|--------------------------|
E||---0-----------------------|-------------------|--------------------------|


  B7                  Em                         C6
--2----------------|--3----2h-3p-2-------3----|--5----3----0--------|
--0----------------|--0-------------5---------|--5------------------|
--2----------------|--0-----------------------|--5------------------|
--1----------------|--2-----------------------|--5---------2--------|
--2----------------|--2-----------------------|---------------------|
-------------------|--0-----------------------|---------------------|


  D                                      Em
--2--3--2--3--2h3p2h3p2h3p2h3p2h3p2h3-|--0-----------------||
--3-----------------------------------|--0-----------------||
--2-----------------------------------|--0----------------*||
--0-----------------------------------|--2----------------*||
--------------------------------------|--2-----------------||
--------------------------------------|--0-----------------||


 






                       


Copyright © Музыкальный Портал на Куличках 1999-2007      music@kulichki.com


    Stolica.ru    
Реклама в Интернет