Stolica.ru Реклама на Куличках     

Аккорды песен:
A B C D E F G H I J K L M N O P Q R S T U V W X Y Z
АБВГДЕЖЗИКЛМНОПРСТУФХЦЧШЩЭЮЯ





Тексты песен :     A B C D E F G H I J K L M N O P Q R S T U V W X Y Z #

ПОЛНЫЙ СПИСОК ПЕСЕН ГРУППЫ




-->



АРИЯ   

Следи за мной
-------------
tabbed by Vladimir Gelfand ("Little Prince")


Tempo: moderately fast (142 bpm)

(0:01 - 0:28)

INTRO:
E|-------------------------|-------------------------|-------------------------|-------------------------|
H|-------------------------|-------------------------|-------------------------|-------------------------|
G|-------------------------|-------------------------|-------------------------|-------------------------|
D|--7------7-7-7-----------|-------------------------|-8-------8-8-8-----------|-------------------------|
A|--7------7-7-7-----------|------bass---------------|-8-------8-8-8-----------|------bass---------------|
E|--5------5-5-5-----------|------drums--------------|-6-------6-6-6-----------|------drums--------------|


E|-------------------------|-------------------------|-------------------------|-------------------------|
H|-------------------------|-------------------------|-------------------------|-------------------------|
G|-------------------------|-------------------------|-------------------------|-------------------------|
D|--5------5-5-5-----------|-------------------------|-------------------------|-------------------------|
A|--5------5-5-5-----------|------bass---------------|-0h4h7-0h5h8-0h7h10-0h8h12-|-0h10h13-0h8h12-0h7h10-0h5h8-|
E|--3------3-3-3-----------|------drums--------------|-------------------------|-------------------------|


E|-------------------------|-------------------------|-------------------------|-------------------------|
H|-------------------------|-------------------------|-------------------------|-------------------------|
G|--9------9-9-------------|-------------------------|-10-----10-10------------|-------------------------|
D|--7------7-7-7-----------|-------------------------|-8-------8-8-8-----------|-------------------------|
A|-------------7-----------|------bass---------------|-------------8-----------|------bass---------------|
E|-------------------------|------drums--------------|-------------------------|------drums--------------|


E|-------------------------|-------------------------|-------------------------|-------------------------|
H|-------------------------|-------------------------|-------------------------|-------------------------|
G|--7------7-7-------------|-------------------------|-------------------------|---------------R---------|
D|--5------5-5-5-----------|-------------------------|-------------------------|---------------E---------|
A|-------------5-----------|------bass---------------|-0h4h7-0h5h8-0h7h10-0h8h12-|-10-10-10-8-8-8-7-S---------|
E|-------------------------|------drums--------------|-------------------------|---------------T---------|

(0:29 - 0:55)

VERSE 1:

VoiceE|-------------------------------------------------------------------------------------------------------|
     H|-------------------------------------------------------------------------------------------------------|
     G|-------------------------------------------------------------------------------------------------------|
     D|--------------------------------------------------------------------------------5----------------------|
     A|----8---8------7----5-----5--------------------------8--8--------8-----7---------------8---------------|
     E|-- Po  do  -  ro - ge  v  ad                      chyornyy     vsad - nik    mchit - sya  -------------|
      |                         |                         |                         |                         |
Gtr. E|-------------------------|-------------------------|-------------------------|-------------------------|
     H|-------------------------|-------------------------|-------------------------|-------------------------|
     G|-7-7-7-7-7-7-7-7-7-7-7-7-|-7-7-7-7-7-7-7-7-7-7-7-7-|-------------------------|-------------------------|
     D|-7-7-7-7-7-7-7-7-7-7-7-7-|-7-7-7-7-7-7-7-7-7-7-7-7-|-8-8-8-8-8-8-8-8-8-8-8-8-|-8-8-8-8-8-8-8-8-8-8-8-8-|
     A|-5-5-5-5-5-5-5-5-5-5-5-5-|-5-5-5-5-5-5-5-5-5-5-5-5-|-8-8-8-8-8-8-8-8-8-8-8-8-|-8-8-8-8-8-8-8-8-8-8-8-8-|
     E|-------------------------|-------------------------|-6-6-6-6-6-6-6-6-6-6-6-6-|-6-6-6-6-6-6-6-6-6-6-6-6-|
 
VoiceE|-------------------------------------------------------------------------------------------------------|
     H|-------------------------------------------------------------------------------------------------------|
     G|-------------------------------------------------------------------------------------------------------|
     D|----7-----5----5-------------------------------------5-------------------------------------------------|
     A|-------------------8-------7-------7-----5-----7------------8-----8------7-----7-----------------------|
     E|- Bled - no - ye  lit  -  zo       i  stran - nyy  blesk   zas - tyv - shih  glaz.  -------------------|
      |                         |                         |                         |                         |
Gtr. E|-------------------------|-------------------------|-------------------------|-------------------------|
     H|-------------------------|-------------------------|-------------------------|-------------------------|
     G|-------------------------|-------------------------|-7-7-7-7-7-7-7-7-7-7-7-7-|-------------------------|
     D|-5-5-5-5-5-5-5-5-5-5-5-5-|-5-5-5-5-5-5-5-5-5-5-5-5-|-7-7-7-7-7-7-7-7-7-7-7-7-|-0h2-3-5-3-2-------------|
     A|-5-5-5-5-5-5-5-5-5-5-5-5-|-5-5-5-5-5-5-5-5-5-5-5-5-|-5-5-5-5-5-5-5-5-5-5-5-5-|-------------5-3-1-------|
     E|-3-3-3-3-3-3-3-3-3-3-3-3-|-3-3-3-3-3-3-3-3-3-3-3-3-|-------------------------|-------------------5-3-1-|
 
VoiceE|-------------------------------------------------------------------------------------------------------|
     H|-------------------------------------------------------------------------------------------------------|
     G|-------------------------------------------------------------------------------------------------------|
     D|-----------------------------------------------------7------7------5------------5-----7----------------|
     A|--8-----8-----7-----5------5----------------------------------------------8----------------------------|
     E|- On   pos - lan - nik   zla,                       ten'  pred - smert - noy  ptit - zy  --------------|
      |                         |                         |                         |                         |
Gtr. E|-------------------------|-------------------------|-------------------------|-------------------------|
     H|-------------------------|-------------------------|-------------------------|-------------------------|
     G|-7-7-7-7-7-7-7-7-7-7-7-7-|-7-7-7-7-7-7-7-7-7-7-7-7-|-------------------------|-------------------------|
     D|-7-7-7-7-7-7-7-7-7-7-7-7-|-7-7-7-7-7-7-7-7-7-7-7-7-|-8-8-8-8-8-8-8-8-8-8-8-8-|-8-8-8-8-8-8-8-8-8-8-8-8-|
     A|-5-5-5-5-5-5-5-5-5-5-5-5-|-5-5-5-5-5-5-5-5-5-5-5-5-|-8-8-8-8-8-8-8-8-8-8-8-8-|-8-8-8-8-8-8-8-8-8-8-8-8-|
     E|-------------------------|-------------------------|-6-6-6-6-6-6-6-6-6-6-6-6-|-6-6-6-6-6-6-6-6-6-6-6-6-|
 
VoiceE|-------------------------------------------------------------------------------------------------------|
     H|-------------------------------------------------------------------------------------------------------|
     G|-------------------------------------------------------------------------------------------------------|
     D|----8-----8-----7-----5-----5-------------5----------7-------------------------5-----------------------|
     A|---------------------------------7------8--------------------------------------------------------------|
     E|- Slov - no  skvoz' pri - tzel   on    vidit        naaaaaaaaaaaaaaaaaaa   -   aaaaaas. ---------------|
      |                         |                         |                         |                         |
Gtr. E|-------------------------|-------------------------|-------------------------|-------------------------|
     H|-------------------------|-------------------------|-------------------------|-------------------------|
     G|-------------------------|-------------------------|-7-7-7-7-7-7-7-7-7-7-7-7-|-5-5-5-5-5-5-5-5-5-5-5-5-|
     D|-5-5-5-5-5-5-5-5-5-5-5-5-|-5-5-5-5-5-5-5-5-5-5-5-5-|-7-7-7-7-7-7-7-7-7-7-7-7-|-5-5-5-5-5-5-5-5-5-5-5-5-|
     A|-5-5-5-5-5-5-5-5-5-5-5-5-|-5-5-5-5-5-5-5-5-5-5-5-5-|-5-5-5-5-5-5-5-5-5-5-5-5-|-3-3-3-3-3-3-3-3-3-3-3-3-|
     E|-3-3-3-3-3-3-3-3-3-3-3-3-|-3-3-3-3-3-3-3-3-3-3-3-3-|-------------------------|-------------------------|

(0:56 - 1:09)

BRIDGE:

VoiceE|-------------------------------------------------------------------------------------------------------|
     H|-------------------------------------------------------------------------------------------------------|
     G|-------------------------------------------------------------------------------------------------------|
     D|-------------------------------------------------------------------------------------------------------|
     A|----7----7-----5----7---------------------------------8----8----7-----5--------------------------------|
     E|-- On   ne   pro - sit,                           zzhyot   i   ru - shit,  ----------------------------|
      |                         |                         |                         |                         |
Gtr. E|-------------------------|-------------------------|-------------------------|-------------------------|
     H|-------------------------|-5-----------------------|-------------------------|-6-----------------------|
     G|-------------------------|-------5-----------------|-------------------------|-------7-----------------|
     D|--7----------------------|-------------7-----------|--8----------------------|-------------8-----5-----|
     A|--7----------------------|-------------------7-----|--8----------------------|-------------------------|
     E|--5----------------------|-------------------------|--6----------------------|-------------------------|
 
VoiceE|-------------------------------------------------------------------------------------------------------|
     H|-------------------------------------------------------------------------------------------------------|
     G|------------------------------------------------------6-----6----7-----6-------------------------------|
     D|-----5-----5----7----5---------------------------------------------------------------------------------|
     A|-------------------------------------------------------------------------------------------------------|
     E|- V noch'  u - no - sit                              na - shi   du - shi!                   -----------|
      |                         |                         |                         |                         |
Gtr. E|-------------------------|-------------------------|-------------------------|-------------------------|
     H|-------------------------|-------------------------|-------------------------|-------------------------|
     G|--7----------------------|-7-----------------------|--9----------------------|-------------------------|
     D|--5----------------------|-------8-----7-----5-----|--7----------------------|-------------------------|
     A|--5----------------------|-------------------------|--7----------------------|-------------------------|
     E|-------------------------|-------------------------|-------------------------|-------------------------|

(1:09 - 1:36)

CHORUS:

VoiceE|-------------------------------------------------------------------------------------------------------|
     H|-------------------------------------------------------------------------------------------------------|
     G|--7------------------------------------7--9---10----10-----------9-------------7-----------9-----------|
     D|-------------------------------------------------------------------------------------------------------|
     A|-------------------------------------------------------------------------------------------------------|
     E|- O!                                 Vsadnik  ot - slu    -    zhit           na          go   -      -|
      |                         |                         |                         |                         |
Gtr. E|-------------------------|-------------------------|-------------------------|-------------------------|
     H|-------------------------|-------------------------|-------------------------|-------------------------|
     G|-------------------------|-------------------------|-------------------------|-------------------------|
     D|-7-----------7-----------|-7-----------7-----------|-3-----------2-----------|-------------2-----------|
     A|-5-----5-5-5-5-----5-5-5-|-5-----5-5-5-5-----5-5-5-|-5-----------3-----------|-5-----------3-----------|
     E|-------------------------|-------------------------|-------------------------|-6-----------------------|
 
VoiceE|-------------------------------------------------------------------------------------------------------|
     H|----------------------------------------------------10-----------8-------------6-----------8-----------|
     G|---7----------------------------------7---9----10------------------------------------------------------|
     D|-------------------------------------------------------------------------------------------------------|
     A|-------------------------------------------------------------------------------------------------------|
     E| -re                                chyornu - yu    mes    -    su            po          te    -    --|
      |                         |                         |                         |                         |
Gtr. E|-------------------------|-------------------------|-------------------------|-------------------------|
     H|-------------------------|-------------------------|-------------------------|-------------------------|
     G|-------------------------|-------------------------|-------------------------|-------------------------|
     D|-7-----------7-----------|-7-----------7-----------|-7-----------5-----------|-3-----------5-----------|
     A|-5-----5-5-5-5-----5-5-5-|-5-----5-5-5-5-----5-5-5-|-8-----------7-----------|-5-----------7-----------|
     E|-------------------------|-------------------------|-------------------------|-------------------------|
 
VoiceE|-----------------------------------------------------8-----------6-------------5-----------6-----------|
     H|---10----------------------------------6--8---10-------------------------------------------------------|
     G|-------------------------------------------------------------------------------------------------------|
     D|-------------------------------------------------------------------------------------------------------|
     A|-------------------------------------------------------------------------------------------------------|
     E| -be.                                  I  e - hom grya     -    net           nad         zem    -    -|
      |                         |                         |                         |                         |
Gtr. E|-------------------------|-------------------------|-------------------------|-------------------------|
     H|-------------------------|-------------------------|-------------------------|-------------------------|
     G|-------------------------|-------------------------|-5-----------3-----------|-2-----------3-----------|
     D|-7-----------7-----------|-7-----------7-----------|-7-----------5-----------|-3-----------5-----------|
     A|-5-----5-5-5-5-----5-5-5-|-5-----5-5-5-5-----5-5-5-|-------------------------|-------------------------|
     E|-------------------------|-------------------------|-------------------------|-------------------------|
 
VoiceE|---10----------------------------------10---12---13--13------------------------12----------------------|
     H|-------------------------------------------------------------------------------------------------------|
     G|-------------------------------------------------------------------------------------------------------|
     D|-------------------------------------------------------------------------------------------------------|
     A|-------------------------------------------------------------------------------------------------------|
     E|-lyoy:                              "Sle - duy  za  mno           -            oy!"       -------------|
      |                         |                         |                         |                         |
Gtr. E|-------------------------|-------------------------|-------------------------|-------------------------|
     H|-------------------------|-------------------------|-------------------------|-------------------------|
     G|-------------------------|-------------------------|-------------------------|-------------------------|
     D|-7-----------7-----------|-7-----------7-----------|-8-----------------------|-7-----------------------|
     A|-5-----5-5-5-5-----5-5-5-|-5-----5-5-5-5-----5-5-5-|-8-----------------------|-7-----------------------|
     E|-------------------------|-------------------------|-6-----------------------|-5-----------------------|

(1:36 - 2:03) VERSE 2

(2:03 - 2:17) BRIDGE

(2:17 - 2:44) CHORUS

(2:44 - 3:51)

SOLO:
E|--------------------------------------|-------------------------------------|
H|-15bend17----------------------------15b17...r15----13----------------------|
G|--------------------------------------|-------------------16----14----------|
D|--------------------------------------|-------------------------------17----|
A|--------------------------------------|-------------------------------------|
E|--------------------------------------|-------------------------------------|


E|--------------------------------------|-------------------------------------|
H|--------------------------------------|-------------------------------------|
G|--------------------------------12----|-------------12----14----16----14----|
D|--14---------------/14----16----------|-/14---16----------------------------|
A|--------------------------------------|-------------------------------------|
E|--------------------------------------|-------------------------------------|


E|-15bend17-----------------------------|-15----14----------------------------|
H|--------------------------------------|-------------15----------------------|
G|--------------------------------------|-------------------14~~~~------------|
D|--------------------------------------|-------------------------------------|
A|--------------------------------------|-------------------------------------|
E|--------------------------------------|-------------------------------------|


E|-----------------------------15----15-|-17bend19----------------------------|
H|--------14-15-14-15-17-15-17----17----|-------------------------------------|
G|-----14-------------------------------|----------------------------------T--|
D|-/14----------------------------------|----------------------------------9p-|
A|--------------------------------------|-------------------------------------|
E|--------------------------------------|-------------------------------------|


E|--------------------------------------|-------------------------------------|
H|--------------------------------------|-------------------------------------|
G|----- T --- T --- T --- T --- T --- T |---- T --- T --- T --- T --- T -- T -|
D|-p2---9p4---9p5---9p7---9p5---9p4---9p|p2---9p4---9p5---9p7---9p5---9p7--10p|
A|--------------------------------------|-------------------------------------|
E|--------------------------------------|-------------------------------------|


E|--------------------------------------|-------------------------------------|
H|--------------------------------------|-------------------------------------|
G|---- T --- T --- T --- T --- T ---- T |--- T --- T --- T --- T --- T -------|
D|-p9--10p7--10p5--10p4--10p5--10p7--10p|p9--10p7--10p5--10p4--10p5--10p7bend9|
A|--------------------------------------|-------------------------------------|
E|--------------------------------------|-------------------------------------|


E|--------------------------------------|----------------------------7--9--10-|
H|----------------------7--8--10--8--7--|----8--7-----------7--8--10----------|
G|-----------------7--9-----------------|-9--------9--7--9--------------------|
D|-r7--------7--9-----------------------|-------------------------------------|
A|-----9--10----------------------------|-------------------------------------|
E|--------------------------------------|-------------------------------------|


E|-10--------9--------------------------|-------------------------------------|
H|---------------10---------------------|-------------------------------------|
G|--------------------9-----------------|-------------------------------------|
D|----------------------------12---11---|-11----------------------------------|
A|--------------------------------------|------12-----------------------------|
E|--------------------------------------|-----------12------------------------|


E|--------------------------------------|-------------------------------------|
H|--------------------------------------|-------------------------------------|
G|------------------------7-------------|-6-----------------------------------|
D|--5-----------------8-----------------|------------------7------------------|
A|--------------------------------------|---------------------------7---------|
E|--------------------------------------|-------------------------------------|


E|--------------------------------------|-------------------------------------|
H|--------------------------------------|---------------- A.H. ---------------|
G|------------------------7-------------|-6---------------<9>~~~~-------------|
D|--5-----------------8-----------------|-------------------------------------|
A|--------------------------------------|-------------------------------------|
E|--------------------------------------|-------------------------------------|


E|--------------------------------------|-------------------------------------|
H|--------------------------------------|-------------------------------------|
G|------------------------7-------------|-6-----------------------------------|
D|--5-----------------8-----------------|------------------7------------------|
A|--------------------------------------|---------------------------7---------|
E|--------------------------------------|-------------------------------------|


E|--------------------------------------|-------------------------------------|
H|--------------------------------------|-------------------------------------|
G|------------------------7-------------|-9~~~~~~~~~~~~~----------------------|
D|--5-----------------8-----------------|-------------------------------------|
A|--------------------------------------|-------------------------------------|
E|--------------------------------------|-------------------------------------|


E|--------------------------------------|------------------------10-----------|
H|--------------------------------------|------------------10-------10--------|
G|--10p9-10-----------------------------|------------10----------------10-----|
D|----------12--------------------------|--------/12----12----12----------12--|
A|--------------------------------------|-------------------------------------|
E|--------------------------------------|-------------------------------------|


E|--------------------------------------|-------------------------------------|
H|--------------------------------------|----------------------------------10b|
G|--12~~~~~~~~~---10--------------------|-------------------------------------|
D|--------------------12----------trill-|-------------------------------------|
A|-------------------------------10h12p10h12p10~~~~~~~~--------------------------|
E|--------------------------------------|--------------13--10-----------------|


E|--------------------------------------|-------------------------------------|
H|b11r10b11----------------8------------|-------------------8-----------------|
G|-------------12p10-12------10b12------|-7-------------------10--9--7--9--10-|
D|----------------------12--------------|----8--10--8----8--------------------|
A|--------------------------------------|-------------10----------------------|
E|--------------------------------------|-------------------------------------|


E|--------------------------------------|-------------------------------------|
H|--------------------------------------|-------------------6--5--------5--6--|
G|--7-----------------------------------|-7-----5--------------------7--------|
D|--7--------------------------5--7--8--|-7-----5-----8-----------0-----------|
A|--------------------5--7--8--.--.--.--|-------------8-----------.-----------|
E|--------------------.--.--.-----------|-------------------------------------|


E|--------------------------------------|-------------------------------------|
H|--------------------------------------|-------------------------------------|
G|--7-----------------9-----------------|-10-----------------9----------------|
D|--7-----------------9-----------------|-10-----------------9----------------|
A|--5-----------------7-----------------|--8-----------------7----------------|
E|--------------------------------------|-------------------------------------|


E|--------------------------------------|--------------------10~~~~~~---9-----|
H|--8----------------10-----------------|-11------------------------------10--|
G|--7-----------------9-----------------|-10----------------------------------|
D|--5-----------------7-----------------|-8-----------------------------------|
A|--------------------------------------|-------------------------------------|
E|--------------------------------------|-------------------------------------|


E|-/15~~~~~~---9------------------9-----|-/15----13----15---------------9-----|
H|---------------10--/15~~~~~~------10--|--------------------15~~~~~~-----10--|
G|--------------------------------------|-------------------------------------|
D|--------------------------------------|-------------------------------------|
A|--------------------------------------|-------------------------------------|
E|--------------------------------------|-------------------------------------|


E|-/15bend17---release15-13-12----------|-------------------------------------|
H|-----------------------------15-13-11-|-------------------------------------|
G|--------------------------------------|-14-12-10----------------------------|
D|--------------------------------------|----------14-12-10-------------------|
A|--------------------------------------|-------------------13-12-10----------|
E|--------------------------------------|----------------------------13-12-10-|

(3:52 - 4:05) BRIDGE

(4:05 - 4:32) CHORUS

(4:32 - 4:39) OUTRO

 






                       


Copyright © Музыкальный Портал на Куличках 1999-2007      music@kulichki.com


    Stolica.ru    
Реклама в Интернет