Stolica.ru Реклама на Куличках     

Аккорды песен:
A B C D E F G H I J K L M N O P Q R S T U V W X Y Z
АБВГДЕЖЗИКЛМНОПРСТУФХЦЧШЩЭЮЯ





Тексты песен :     A B C D E F G H I J K L M N O P Q R S T U V W X Y Z #

ПОЛНЫЙ СПИСОК ПЕСЕН ГРУППЫ




-->



АРИЯ   

Все, что было
-------------
tabbed by Vladimir Gelfand ("Little Prince")


Tempo: slow (79 bpm)

(0:01 - 0:25)

INTRO:

E|-------------0-----------------------------0-----|-0-----------------------------------------0-----|
H|-------------0-----0-----------------0-----------|-------------------------------------3-----------|
G|-------0-----------0-----2-----0-----0-----------|-------------------------0-----------------------|
D|-------2-----------------2-----2-----------------|-------------2-----------------------------------|
A|-------------------------------------------------|-3-----3-----------3-----------3-----------------|
E|-0-----------------------------------------------|-------------------------------------------------|


E|-------------------2-----0-----------0-----------|-------------5-----7p5\3-3p0---5-----7p5\3-3p0---|
H|-------------3-----3-----------3-----------3-----|-------------2---------------2-----------------2-|
G|-------2-----------2-----------------------------|-------------2-----------------------------------|
D|-0-------------------^---------------------------|-------2-------^---------------------------------|
A|---------------------|---------------------------|-0-------------|---------------------------------|
E|-------------------------------------------------|-------------------------------------------------|


E|-------------0-----------------------------------|-------------------------0-----------------------|
H|-------------0-----0-----------------------------|-------------------------------0-----------------|
G|-------0-----------0-----2p0---0-----------------|-------------0-----------------------------0-----|
D|-------2-----------------2-----2-----------------|-------2-----------2-----------------4-----------|
A|-------------------------------------2-----------|-3-----------------------------------------------|
E|-0-----------------------------------------3-----|-------------------------------------------------|


E|-------5--5--5-----2--2--2-----------------------|-2-----0-----------------------------------------|
H|-------7--7--7-----3--3--3-----3--3--3-----------|-3-----3p0---0-----5-----------------------------|
G|-7-----------------------------2--2--2-----------|-------------2-----4-----------------------------|
D|-0-----------------------------------------------|-------------------------------------------------|
A|-------------------------------------------------|-------------------------------------------------|
E|-------------------------------------------------|-------------------------------------------------|

(0:25 - 1:05)

VERSE 1:

VoiceE|--------------------------------------------------------------------|
     H|--------------------------------------------------------------------|
     G|--------------------------------------------------------------------|
     D|---5----5-----5-----------4----5---4----2-------2-------------------|
     A|--------------------------------------------------------------------|
     E| Dver' na  klyuch    -    i  svintzom  tos  -  ka       ------------|
      |                                  |                                 |
Gtr. E|----------------------------------|-----3-----------3---------------|
     H|------8-----------8---------------|---------5-----------5-------5---|
     G|----------9-----------9-------9---|-------------5-----------5-------|
     D|--------------9-----------9-------|---------------------------------|
     A|--7-------------------------------|-3-------------------------------|
     E|----------------------------------|---------------------------------|
 
VoiceE|--------------------------------------------------------------------|
     H|--------------------------------------------------------------------|
     G|--------------------------------------------------------------------|
     D|--4------4-----4-----------2--4----5------4-----2-------------------|
     A|----------------------------------------------------------------2---|
     E| Bol' v du - she         slovno  smert' bliz - ka.              O - |
      |                                  |                                 |
Gtr. E|------5-----------5---------------|-----------------5---------------|
     H|----------7-----------7-------7---|-------------5-------5-----------|
     G|--------------7-----------7-------|---------6---------------6-------|
     D|----------------------------------|-----7-----------------------7---|
     A|--5-------------------------------|-0-------------------------------|
     E|----------------------------------|---------------------------------|
 
VoiceE|--------------------------------------------------------------------|
     H|--------------------------------------------------------------------|
     G|--4---4-------4-----------2---------3-------------------------------|
     D|-----------------------------5----------2-------5-------------------|
     A|----------------------------------------------------------------2---|
     E| din lish'  shag        smozhet  vsyo  re  -  shit'.           Te - |
      |                                  |                                 |
Gtr. E|----------------------------------|-----3-----------3---------------|
     H|------8-----------8---------------|---------5-----------5-------5---|
     G|----------9-----------9-------9---|-------------5-----------5-------|
     D|--------------9-----------9-------|---------------------------------|
     A|--7-------------------------------|-3-------------------------------|
     E|----------------------------------|---------------------------------|
 
VoiceE|--------------------------------------------------------------------|
     H|--------------------------------------------------------------------|
     G|--2----2------2----------------2----3-2----2--------2---------------|
     D|---------------------------5--------------------5-------5---2-------|
     A|--------------------------------------------------------------------|
     E| per' ty  - vrag,         ya  ne  znayu,  kak mne zhi - i - it'..  -|
      |                                  |                                 |
Gtr. E|------5-----------5---------------|-----------------5---------------|
     H|----------7-----------7-------7---|-------------5-------5-----------|
     G|--------------7-----------7-------|---------6---------------6-------|
     D|----------------------------------|-----7---------------------------|
     A|--5-------------------------------|-0-------------------------------|
     E|----------------------------------|---------------------------------|
 
VoiceE|--------------------------------------------------------------------|
     H|--------------------------------------------------------------------|
     G|-----------2--------------------------------------------------------|
     D|------------------5-------4--------5---4---2------------------------|
     A|--------------------------------------------------------------------|
     E|-----     Kak    dal' - she      zhi - i - it'....     mmmmmmm   ---|
      |                                  |                                 |
Gtr. E|----------5-------3-------2-------|-----------------------------0---|
     H|------5---------------------------|-------------0-----------0-------|
     G|--5-------------------------------|---------2-------2---0-----------|
     D|----------------------------------|-----2---------------------------|
     A|--0-----------0-------0-------0---|---------------------------------|
     E|----------------------------------|-0-------------------------------|
 
Gtr. E|------------------------------0---|-------------2---0-------0-------|
     H|--1-----------------------3-------|---------3---3-------3-------3---|
     G|------------------0---------------|-----2-------2-------------------|
     D|----------2-----------------------|-0-------------^-----------------|
     A|------3-------3-------3-----------|---------------|-----------------|
     E|----------------------------------|---------------------------------|
 
Gtr. E|--2---0---------------------------|
     H|--3---3p0-0---5-------------------|
     G|----------2---4-------------------|
     D|----------------------------------|
     A|----------------------------------|
     E|----------------------------------|

(1:06 - 1:36) VERSE 2, finishing with:

VoiceE|--------------------------------------------------------------------|
     H|--------------------------------------------------------------------|
     G|-----------2--------------------------------------------------------|
     D|------------------5-------4---------5---4-----2----------2----2--5-2|
     A|--------------------------------------------------------------------|
     E|------    Tak    ho  -  chesh'     ty - y  -  y...     Vse chto bylo|
      |                                  |                                 |
Gtr. E|----------5-------3-------2-------|---------0-----------------------|
     H|------5---------------------------|---------0-^---------------------|
     G|--5-------------------------------|---------0-|---------------------|
     D|----------------------------------|-----2---2-|---------------------|
     A|--0-----------0-------0-------0---|-----------|---------------------|
     E|----------------------------------|-0-------------------------------|

(1:36 - 1:57)

CHORUS:

VoiceE|----------------------------------------------------------------------------------------------------|
     H|----------------------------------------------------------------------------------------------------|
     G|----------------------------------------------------------------------------------------------------|
     D|---7----------------4-----------------5--4--2------2------------------------------------2----2--5-2-|
     A|------------------------------------------------5---------------------------------------------------|
     E| svet              moy              chistyy i svyatoy.                               Vsyo chto bylo |
      |                                                  |                                                 |
Gtr. E|--------------------------------------------------|-------------------------------------------------|
     H|--------------------------------------------------|-------------------12~~~~~~~~~~~-----------------|
     G|--------------------------------------------------|-------------------------------------------------|
     D|--7-----------------4-----------------------------|-2-----------------------------------------------|
     A|--7-----------------2-----------------3--2--------|-2-----------------------------------------------|
     E|--5-----------------2-----------------------3--2--|-0-----------------------------------------------|
 
VoiceE|----------------------------------------------------------------------------------------------------|
     H|----------------------------------------------------------------------------------------------------|
     G|----------------------------------------------------------------------------------------------------|
     D|--7-----------------4-----------------5--4--2------2------------------------------------2----2--5-2-|
     A|------------------------------------------------5---------------------------------------------------|
     E| rok               moy              zhadnyy i  slepoy                                Vsyo chto budet|
      |                                                  |                                                 |
Gtr. E|--------------------------------------------------|-------------------12~~~~~~~~~~~-----------------|
     H|--------------------------------------------------|-------------------------------------------------|
     G|--------------------------------------------------|-------------------------------------------------|
     D|--7-----------------4-----------------------------|-2-----------------------------------------------|
     A|--7-----------------5-----------------3--2--------|-2-----------------------------------------------|
     E|--5-----------------7-----------------------3--2--|-0-----------------------------------------------|
 
VoiceE|----------------------------------------------------------------------------------------------------|
     H|----------------------------------------------------------------------------------------------------|
     G|----------------------------------------------------------------------------------------------------|
     D|---7----------------4-----------------5---4--2-------2----------------4----------------5--4--2------|
     A|-------------------------------------------------5-----------------------------------------------5--|
     E| krest             moy              sem' krugov proyti              mne              v ognennoy pus-|
      |                                                  |                                                 |
Gtr. E|--------------------------------------------------|-------------------------------------------------|
     H|--------------------------------------------------|-------------------------------------------------|
     G|--------------------------------------------------|-------------------------------------------------|
     D|--7-----------------4-----------------------------|-2-----------------4-----------------------------|
     A|--7-----------------2-----------------3--2--------|-3-----------------5-----------------3--2--------|
     E|--5-----------------2-----------------------3--2--|-5-----------------7-----------------------3--2--|
 
VoiceE|--------------------------------------------------|
     H|--------------------------------------------------|
     G|--------------------------------------------------|
     D|--2-----------------4-----------------------------|
     A|--------------------------------------------------|
     E| ty       -        ne.....    --------------------|
      |                                                  |
Gtr. E|--------------------------------------------------|
     H|--------------------------------------------------|
     G|--------------------------------------------------|
     D|--2-----------------4-----------------------------|
     A|--3-----------------5-----------------------------|
     E|--5-----------------7-----------------------------|

(1:58 - 2:28) VERSE 3

(2:28 - 2:49) CHORUS

SOLO:

(2:50 - 3:14)

PART A:
E|--------------------------------12----------------|-------------------------------------------------|
H|-----------------------------12----12-------------|-------------------------------------------------|
G|-/9-------------------/14b16.......rel14p12-------|----------------------------10b12----10b12----10b|
D|-/9-----------------------------------------14p12-|-12-------------------------------12-------12----|
A|--------------------------------------------------|-12----------------------------------------------|
E|--------------------------------------------------|-------------------------------------------------|


E|----hold--------------------hold------------------|----------------------------------20-------------|
H|----bend--------------------bend------------------|-------17-17-17----------------20----20\---------|
G|-b12....rel10----------10b12....rel10-----------10/////16-------------------22b24-----------19b21---|
D|-----12-10----12-------------12-10----12----------gliss------------------------------------------21-|
A|--------------------------------------------------|-------------------------------------------------|
E|--------------------------------------------------|-------------------------------------------------|


E|--------------------------------------------------|-------------20-20-20----------20-20-20\---------|
H|-----------------------------19b21----19b21----19-b21--------19-----------------19------------------|
G|--21\------------------------------20-------20----|---20-21bf---------------21bf--------------------|
D|--21\---------------------------------------------|-------------------------------------------------|
A|--------------------------------------------------|-------------------------------------------------|
E|--------------------------------------------------|-------------------------------------------------|


E|--------------------------------------------------|-------------------------------------------------|
H|--------------------------------------------------|-------------------------------------------------|
G|--10b12-------------------10b12-------------------|-------------------------------------------------|
D|--------12-10-12----12----------12-10-12----12----|-10bend12----------------------------------------|
A|-----------------10----10----------------10----10-|-------------------4b5---2-----------------------|
E|--------------------------------------------------|-----------8\-sl---------0-----------------------|

(3:14 - 3:38)

PART B:

E|-------------------------------------------------|-------------------------------------------------|
H|-------------------------------------------------|-------------------------------------------------|
G|-------7-----------------------------------------|-------------------------------------------------|
D|-7h8h9-------------------------------------5--7--|-7h8p7p5-----5b7rel5-----------------------------|
A|-------------------------------------------------|---------7---------------------------------------|
E|-------------------------------------------------|-------------------------------------------------|


E|-------------------------------------------------|------------------------A.H.--------A.H.---------|
H|-------------------------------------------------|-------------------------------------------------|
G|-------------------------------------------------|-------------7-----9--7-<11>--------<9>--------x-|
D|-4~~~~~~~~~~~~~~~~~~~~---------------5--4--7--5--|-9--7--10--9---10-----------------------------x--|
A|----------------------------7--5--7--------------|------------------------------------------- rake |
E|-------------------------------------------------|-------------------------------------------------|


E|-------12----------------------17b19...release17-|-19-18-17-15-17h18p17p15-17p15--15---18----19-------------|
H|-12-14----15b17----------------------------------|------------------------------17--------------------------|
G|-------------------------------------------------|-------------------------------------------------|
D|-------------------------------------------------|-------------------------------------------------|
A|-------------------------------------------------|-------------------------------------------------|
E|-------------------------------------------------|-------------------------------------------------|


E|-15~~~~-\---------------------12------------------------------|-------------------------------------------------|
H|--------sl-----------------12----15p12-15p12------------------|-------------------------------------------------|
G|----------------14b16-----------------------14p12-14p12-------|---????------------------------------------------|
D|-------------------------------------------------------14-----|-------------------------------------------------|
A|-------------------------------------------------|-------------------------------------------------|
E|-------------------------------------------------|-------------------------------------------------|

(3:38 - 4:08) LAST VERSE

(4:08 - 5:10) Repeat CHORUS 2 times, slow down in the end


 






                       


Copyright © Музыкальный Портал на Куличках 1999-2007      music@kulichki.com


    Stolica.ru    
Реклама в Интернет