Stolica.ru Реклама на Куличках     

Аккорды песен:
A B C D E F G H I J K L M N O P Q R S T U V W X Y Z
АБВГДЕЖЗИКЛМНОПРСТУФХЦЧШЩЭЮЯ





Тексты песен :     A B C D E F G H I J K L M N O P Q R S T U V W X Y Z #

ПОЛНЫЙ СПИСОК ПЕСЕН ГРУППЫ




-->



АРИЯ   

Уходи и не возвращайся
----------------------

tabbed by Vladimir Gelfand ("Little Prince")

Tempo: moderately (136 bpm)

INTRO:

(0:01 - 0:08) Vocal intro:

VoiceE|-------------------------|-------------------------|-------------------------|-------------------------|
     H|-------------------------|-------------------------|-------------------------|-------------------------|
     G|-------------------------|-------------------------|-------------------------|-------------------------|
     D|-2-4---2-6---------------|------------6---6--4---2-|-4---2-------------------|-5--5--5---5--4--2--2--2-|
     A|-------------------------|-------------------------|-------------------------|-------------------------|
     E|-Uho - odi                            i  ne vozvraschaysya.                    I ne vozvrascaysa ko mne|
      |                         |                         |                         |                         |
Gtr.1E|-------------------------|-------------------------|-------------------------|-------------------------|
Gtr.2H|-------------------------|-------------------------|-------------------------|-------------------------|
     G|-------------------------|-------------------------|-------------------------|----------------------6--|
     D|-------------------------|-------------------------|-------------------------|----------------------6--|
     A|-------------------------|-------------------------|-------------------------|----------------------4--|
     E|-------------------------|-------------------------|-------------------------|-------------------------|

(0:08 - 0:22)

RIFF 1 (play 2 times; sing only first time)

       -  e !
Gtr.1E||-------------------------|-------------------------|-------------------------|-------------------------||
Gtr.2H||-------------------------|-------------------------|-------------------------|-------------------------||
     G||(6)-------------------4--|(4)----------------------|-------------------------|----------------------6--||
     D||(6)-------------------4--|(4)-------------------7--|(7)-------------------1--|(1)-2-----4-----6--4--6--||
     A||(4)-6--7-----6--7-----2--|(2)-6--7-----6--7-----7--|(7)-6--7-----6--7-----3--|(3)-4-----6-----7--6--4--||
     E||----7--9--4--7--9--4-----|----7--9--4--7--9--4--5--|(5)-7--9--4--7--9--4-----|-------------------------||
                  .        .                .        .                .        .
(0:22 - 0:39)

Solo under RIFF 1:

Gtr.1E|--------------------------|-------------------------|-------------------------|-------------------------|
Gtr.2H|--------------------------|-------------------------|-------------------------|-------------------------|
     G|-(6)-------------------4--|(4)----------------------|-------------------------|----------------------6--|
     D|-(6)-------------------4--|(4)-------------------7--|(7)-------------------1--|(1)-2-----4-----6--4--6--|
     A|-(4)-6--7-----6--7-----2--|(2)-6--7-----6--7-----7--|(7)-6--7-----6--7-----3--|(3)-4-----6-----7--6--4--|
     E|-----7--9--4--7--9--4-----|----7--9--4--7--9--4--5--|(5)-7--9--4--7--9--4-----|-------------------------|
      |           .        .     |          .        .     |          .        .     |                         |
Gtr.3E|--------------------------|-------------------------|-------------------------|-------------------------|
     H|--------------------------|-------------------------|-------------------------|-------------------------|
     G|--11b13-11^11^11^11^11^11^|-11^11^11^rel.11---------|-------------------------|-------------------------|
     D|----------  graduate release --------------------9bend11----9~~~~~~~----------|-------9--11--9----9--11-|
     A|--------------------------|-------------------------|----------------------11-|----11----------11----11-|
     E|--------------------------|-------------------------|-------------------------|-------------------------|
 
Gtr.1E|--------------------------|-------------------------|-------------------------|-------------------------|
Gtr.2H|--------------------------|-------------------------|-------------------------|-------------------------|
     G|-(6)-------------------4--|(4)----------------------|-------------------------|----------------------6--|
     D|-(6)-------------------4--|(4)-------------------7--|(7)-------------------1--|(1)-2-----4-----6--4--6--|
     A|-(4)-6--7-----6--7-----2--|(2)-6--7-----6--7-----7--|(7)-6--7-----6--7-----3--|(3)-4-----6-----7--6--4--|
     E|-----7--9--4--7--9--4-----|----7--9--4--7--9--4--5--|(5)-7--9--4--7--9--4-----|-------------------------|
      |           .        .     |          .        .     |          .        .     |                         |
Gtr.3E|--------------------------|------------------------9h12p9--------------------------|-------------------------|
     H|--------------------------|-------------------------|----12p9----------------------|----------------------12b|
     G|-----------------9-----9--|(9)b11r9-----9~~~~~~-----|--------12p9-12p9-----9--11--11-b12r11b12r11b12r11p9-----|
     D|-(11)---11----11----------|-------------------------|-----------------11----------|-------------------------|
     A|-(11)---------------------|-------------------------|-------------------------|-------------------------|
     E|--------------------------|-------------------------|-------------------------|-------------------------|
 
Gtr.1E|--------------------------|-------------------------|
Gtr.2H|--------------------------|-------------------------|
     G|-(6)----------------------|(6)----------------------|
     D|-(6)----------------------|(6)-------------0--1--2--|
     A|-(4)----------------------|(4)-------------------2--|
     E|--------------------------|----------------------0--|
      |                          |                         |
Gtr.3E|--------------------------|-------------------------|
     H|-b14----------------------|-(12^^)------------------|
     G|--------------------------|-------------------------|
     D|--------------------------|-------------------------|
     A|--------------------------|-------------------------|
     E|--------------------------|-------------------------|

(0:40 - 1:08)

VERSE 1:

VoiceE|--------------------------------------------------------------------------------------------------------|
     H|--------------------------------------------------------------------------------------------------------|
     G|---------------------------------------------------------------------------4----------------------------|
     D|--------5--5-4----2-----5------5-----4-----2----------------5-5-4------2-----------5-----4-----2--------|
     A|--------------------------------------------------------------------------------------------------------|
     E|-----  Ty hote - la    byt'  vseh  kru - che,             krasotoy   svo - ey     za  - mu - chit'   ---|
      |                          |                         |                         |                         |
Gtr. E|--------------------------|-------------------------|-------------------------|-------------------------|
     H|--------------------------|-------------------------|-------------------------|-------------------------|
     G|-----------------------0--|-(0)---------------------|-------------------------|-------------------------|
     D|-(2)----2-----2--------2--|-(2)------------------5--|(5)----5-----5--------5--|(5)-------------------4--|
     A|-(2)----2-----2--------2--|-(2)------------------3--|(3)----3-----3--------3--|(3)-------------------2--|
     E|-(0)----0-----0--------0--|-(0)---------------------|-------------------------|-------------------------|
 
VoiceE|--------------------------------------------------------------------------------------------------------|
     H|--------------------------------------------------------------------------------------------------------|
     G|--------------------------------------------------------------------------------------------------------|
     D|--------4--4--4----4-----4------4-----2----4----------5---5---5-5-----4-2---2---------------------------|
     A|--------------------------------------------------------------------------------------------------------|
     E|-----   i zasta - vit'  sa  -  myh   luchshih       druzhno platit'  tebe  dan'.    --------------------|
      |                          |                         |                         |                         |
Gtr. E|--------------------------|-------------------------|-------------------------|-------------------------|
     H|--------------------------|-------------------------|-------------------------|-------------------------|
     G|--------------------------|-------------------------|-------------------------|-------------------------|
     D|-(4)----4-----4--------4--|-(4)---------------------|-------------------------|-7-----5--------------2--|
     A|-(2)----2-----0-h2-----2--|-(2)---------------------|-------------------------|-7-----5--------------2--|
     E|--------------------------|-------------------------|-5--0--0--3--0--0--2--0--|-5-----3--------2--0--0--|
                                                             >  .  .  >  .  .  >  .    >     >
 
VoiceE|--------------------------------------------------------------------------------------------------------|
     H|--------------------------------------------------------------------------------------------------------|
     G|----------------------------------------------------------------------------4---------------------------|
     D|--------5--5--4-2-------5------5----4----2-----------------5--5---4----2----------5-----4------2--------|
     A|--------------------------------------------------------------------------------------------------------|
     E|-----  Ty reshila   v svet   pro - bit'sya                 i nashla   se - be   dvuh  prin - tzev  -----|
      |                          |                         |                         |                         |
Gtr. E|--------------------------|-------------------------|-------------------------|-------------------------|
     H|--------------------------|-------------------------|-------------------------|-------------------------|
     G|-----------------------0--|-(0)---------------------|-------------------------|-------------------------|
     D|-(2)----2-----2--------2--|-(2)------------------5--|(5)----5-----5--------5--|(5)-------------------4--|
     A|-(2)----2-----2--------2--|-(2)------------------3--|(3)----3-----3--------3--|(3)-------------------2--|
     E|-(0)----0-----0--------0--|-(0)---------------------|-------------------------|-------------------------|
 
VoiceE|--------------------------------------------------------------------------------------------------------|
     H|--------------------------------------------------------------------------------------------------------|
     G|--------------------------------------------------------------------------------------------------------|
     D|--------4-4---4----4---4------4-----2------4----------5---5--5--5-----4-2----2------------------2-4---2-|
     A|--------------------------------------------------------------------------------------------------------|
     E|-----   i banki - ra   i      u  - biy - tsu.        Ty prosto hit - raya dryan'.               Uho - o-|
      |                          |                         |                         |                         |
Gtr. E|--------------------------|-------------------------|-------------------------|-------------------------|
     H|--------------------------|-------------------------|-------------------------|-------------------------|
     G|--------------------------|-------------------------|-------------------------|-------------------------|
     D|-(4)----4-----4--------4--|-(4)---------------------|-------------------------|----------------------6--|
     A|-(2)----2-----0-h2-----2--|-(2)---------------------|-------------------------|----------------------4--|
     E|--------------------------|-------------------------|-5--0--0--3--0--0--2--0--|-5--5--5--5--5--5--5-----|
                                                             >  .  .  >  .  .  >  .    .  .  .  .  .  .  .  >
(1:08 - 1:25)

CHORUS:
        di   -   i                             i ne vozvraschaysya                 ueey!            uho  -  o -
Gtr.1E|--------------------------|-------------------------|-------------------------|-------------------------|
Gtr.2H|--------------------------|-------------------------|-------------------------|-------------------------|
     G|--------------------4-----|-------------------4-----|-------------------4-----|-------------------4-----|
     D|-(6)----4-----6-----6-----|-------4-----6-----6-----|-------4-----6-----6-----|-------4-----6-----6--6--|
     A|-(4)----6-----7--------6--|(6)----6-----7--------4--|(4)----6-----7--------6--|(6)----6-----7--------4--|
     E|-----------------------7--|(7)-------------------5--|(5)-------------------4--|(4)----------------------|

        di   -   i                             i ne vozvraschaysya,                  i ne vozvraschaysya ko mne-
Gtr.1E|--------------------------|-------------------------|-------------------------|-------------------------|
Gtr.2H|--------------------------|-------------------------|-------------------------|-------------------------|
     G|--------------------4-----|-------------------4-----|-------------------4-----|-------------------4-----|
     D|-(6)----4-----6-----6-----|-------4-----6-----6-----|-------4-----6-----6-----|-------4-----6-----6--6--|
     A|-(4)----6-----7--------6--|(6)----6-----7--------4--|(4)----6-----7--------6--|(6)----6-----7--------4--|
     E|-----------------------7--|(7)-------------------5--|(5)-------------------4--|(4)----------------------|
       1. ---------------------------------------------> 

        - e!   
Gtr.1E|--------------------------|-------------------------|
Gtr.2H|--------------------------|-------------------------|
     G|--------------------------|-------------------------|
     D|-(6)----------------------|----------------0--1--2--|
     A|-(4)----------------------|----------------------2--|
     E|--------------------------|----------------------0--|

(1:26 - 1:54) VERSE 2

(1:54 - 2:08) CHORUS without the last 2 measures; instead go to post-chorus.

(2:08 - 2:20)

POST-CHORUS:

   2. ---------------------------------------------> 
   Ne   na - dey - sya,  chto  syg - ra - yem v sta - ru - yu  lyu - boooooooooov'.     
E|----------------------|---------------------|---------------------|---------------------|
H|--5-------------------|-5-------------------|---------------------|---------------------|
G|--6-------------------|-5-------------------|--1------------------|-3-------------------|
D|--6-------------------|-6-------------------|--2------------------|-4-------------------|
A|--4-------------------|-3-------------------|--2------------------|-4-------------------|
E|----------------------|---------------------|--0------------------|-2-------------------|
                         Bye,  bye,  detka.  V mire mnogo staryh koz-
E|----------------------|---------------------|---------------------|
H|----------------------|---------------------|---------------------|
G|----------------------|---------------------|----R----------------|
D|----------------------|-7----7----7---------|-9--E--------------2-|
A|----------------------|-7----7----7---------|-9--S--------------2-|
E|----------------------|-5----5----5---------|-7--T--------------0-|

(2:21 - 2:48)

SOLO:
       lov!  
Lead E|----------------------------------|---------------------------------|
     H|-15bend17-----15~~~~~~~~~~--------|---------------------------------|
     G|------------------------------14bend16-14h16p14\12------12----------15--|
     D|----------------------------------|-------------14--12--------------|
     A|----------------------------------|---------------------------------|
     E|----------------------------------|---------------------------------|
      |                                  |                                 |
Rthm E|----------------------------------|---------------------------------|
     H|----------------------------------|---------------------------------|
     G|----------------------------------|---------------------------------|
     D|-(2)--------------------------2---|(2)--------------------------5---|
     A|-(2)--------------------------2---|(2)--------------------------3---|
     E|-(0)--0---0---0---0---0---0---0---|(0)--0---0---0---0---0---0-------|
 
Lead E|----------------------------------|---------------------------------|
     H|------------------12--------------|---------------------------------|
     G|-(15)-----12-14-15---15-14-12-----12h14p12---------------------------|
     D|------14--------------------14p12---|-------14p13h14p13p12----------------|
     A|----------------------------------|-----------------15-p12------11\-|
     E|----------------------------------|---------------------------------|
      |                                  |                                 |
Rthm E|----------------------------------|---------------------------------|
     H|----------------------------------|---------------------------------|
     G|----------------------------------|---------------------------------|
     D|-(5)--------------------------5---|(5)--------------------------6---|
     A|-(3)--3---3---3---3---3---3---3---|(3)--3---3---3---3---3---3---4---|
     E|----------------------------------|---------------------------------|
 
Lead E|----------------------------------|---------------------------------|
     H|----------------------------------|---------------------------------|
     G|----------4h6p4h6-7bend9----------|-4-------------------------------|
     D|----------------------------------|---6--5--4-----------------------|
     A|----------------------------------|-----------6--5--4----4~~~~~~----|
     E|----------------------------------|---------------------------------|
      |                                  |                                 |
Rthm E|----------------------------------|---------------------------------|
     H|----------------------------------|---------------------------------|
     G|----------------------------------|---------------------------------|
     D|-(6)--------------------------6---|(6)------------------------------|
     A|-(4)--4---4---4---4---4---4---4---|(4)--4---4---4---4---4---4---7---|
     E|----------------------------------|-----------------------------5---|
 
Lead E|----------------------------------|---------------------------------|
     H|----------------------------------|---------------------------------|
     G|----------6--8--9-9p8p6-----9-11-12-|---------12-14-15-15p14p12---12h14-14bf-|
     D|-----------------------/9---------|-----------------------14----------|
     A|----------------------------------|---------------------------------|
     E|----------------------------------|---------------------------------|
      |                                  |                                 |
Rthm E|----------------------------------|---------------------------------|
     H|----------------------------------|---------------------------------|
     G|----------------------------------|---------------------------------|
     D|----------------------------------|-----------------------------2---|
     A|-(7)--------------------------7---|(7)--------------------------2---|
     E|-(5)--5---5---5---5---5---5---5---|(5)--5---5---5---5---5---5---0---|
 
Lead E|----------------------------------|----------------------17b19-r17~-|
     H|------12-----12-----12-----12-----15p12p0-0-|-17p0-0-0-19p0-0-0-20p0-------------|
     G|(14bf)---14bf---14bf---14bf-----------------|---------------------------------|
     D|----------------------------------|---------------------------------|
     A|----------------------------------|---------------------------------|
     E|----------------------------------|---------------------------------|
      |                                  |                                 |
Rthm E|----------------------------------|---------------------------------|
     H|----------------------------------|---------------------------------|
     G|----------------------------------|---------------------------------|
     D|-(2)--------------------------2---|(2)--------------------------5---|
     A|-(2)--------------------------2---|(2)--------------------------3---|
     E|-(0)--0---0---0---0---0---0---0---|(0)--0---0---0---0---0---0-------|
 
Lead E|-(17)~~-14-17p14-16p12-14p10h13p10-12p8-10p7-9p6-8|p5-7p4-6p3-5p2p0-4p1-3p1p0---??---------|
     H|----------------------------------|-----------------------------4^--|
     G|----------------------------------|---------------------------------|
     D|----------------------------------|---------------------------------|
     A|----------------------------------|---------------------------------|
     E|----------------------------------|---------------------------------|
      |                                  |                                 |
Rthm E|----------------------------------|---------------------------------|
     H|----------------------------------|---------------------------------|
     G|----------------------------------|---------------------------------|
     D|-(5)--------------------------5---|(5)--------------------------6---|
     A|-(3)--3---3---3---3---3---3---3---|(3)--3---3---3---3---3---3---4---|
     E|----------------------------------|---------------------------------|
 
Lead E|----------------------------------|---------------------------------|
     H|-(4^)-----------------------------|---------------------------------|
     G|----------------------------------|---------------------------------|
     D|------------------------------2---|-4bend5~~~~~~bend6r4p2-----------|
     A|--------------------------4-------|-------------------------4-------|
     E|----------------------------------|---------------------------------|
      |                                  |                                 |
Rthm E|----------------------------------|---------------------------------|
     H|----------------------------------|---------------------------------|
     G|----------------------------------|---------------------------------|
     D|-(6)--------------------------6---|(6)------------------------------|
     A|-(4)--4---4---4---4---4---4---4---|(4)--4---4---4---4---4---4---4---|
     E|----------------------------------|---------------------------------|
 
Lead E|------12p9-12p9-------------------|---------------------------------|
     H|--------------12p9-12p9-----------|-----12--------------------------|
     G|----------------------12p9-11p9---|-9---11-b12-r11-b12-r11-b12r11p9~~-|
     D|------------------------------11--|---------------------------------|
     A|----------------------------------|---------------------------------|
     E|----------------------------------|---------------------------------|
      |                                  |                                 |
Rthm E|----------------------------------|---------------------------------|
     H|----------------------------------|---------------------------------|
     G|----------------------------------|---------------------------------|
     D|----------------------------------|---------------------------------|
     A|----------------------------------|---------------------------------|
     E|--5---0---0---3---0---0---2---0---|-5---5---5---5---5---5---5-------|
      |  >   .   .   >   .   .   >   .   | .   .   .   .   .   .   .       |
Bass G|----------------------------------|---------------------------------|
     D|----------------------------------|---------------------------------|
     A|----------------------------------|-----------------------------4---|
     E|----------------------------------|---------------------------------|

(2:49 - 3:03)

RIFF 2 (Bass RIFF) (Play 2 times)

     - di          u - ho - di                            i  ne  vozvras - 
BassG||---------------------------------|---------------------------------|
    D||-----------------6-------4-------|---------------------------------|
    A||-(4)-4---7---4-------4-----------|---------6-------9-------7-------|
    E||-----------------------------7---|(7)--7-------7-------7-------5---|
      chaysya.                                            u - hoooooo -

BassG|----------------------------------|---------------------------------||
    D|----------------------------------|---------6-------4---------------||
    A|----------4-------7-------6-------|-------------7-------7---6---4---||
    E|-(5)--5-------5-------5-------4---|(4)--4---------------------------||

(3:03 - 3:17)

RIFF 2' (another guitar joins) (play 2 times)

       - di        u - ho - di                            i  ne  vozvras - 
BassG||---------------------------------|---------------------------------|
    D||-----------------6-------4-------|---------------------------------|
    A||-(4)-4---7---4-------4-----------|---------6-------9-------7-------|
    E||-----------------------------7---|(7)--7-------7-------7-------5---|
     ||                                 |                                 |
Gtr.E||-----x---9-------x---9-------9---|-----x---9-------x---9-------9---|
    H||-----x---9-------x---9-------9---|-----x---9-------x---9-------9---|
    G||---------------------------------|---------------------------------|
    D||---------------------------------|---------------------------------|
    A||---------------------------------|---------------------------------|
    E||---------------------------------|---------------------------------|
 
      chaysya.                                            u - hoooooo -
BassG|----------------------------------|---------------------------------||
    D|----------------------------------|---------6-------4---------------||
    A|----------4-------7-------6-------|-------------7-------7---6---4---||
    E|-(5)--5-------5-------5-------4---|(4)--4---------------------------||
     |                                  |                                 ||
Gtr.E|------x---9-------x---9-------9---|-----x---9-------x---9-------9---||
    H|------x---9-------x---9-------9---|-----x---9-------x---9-------9---||
    G|----------------------------------|---------------------------------||
    D|----------------------------------|---------------------------------||
    A|----------------------------------|---------------------------------||
    E|----------------------------------|---------------------------------||

(3:17 - 3:47) CHORUS fused with Verse

 






                       


Copyright © Музыкальный Портал на Куличках 1999-2007      music@kulichki.com


    Stolica.ru    
Реклама в Интернет