Stolica.ru Реклама на Куличках     

Аккорды песен:
A B C D E F G H I J K L M N O P Q R S T U V W X Y Z
АБВГДЕЖЗИКЛМНОПРСТУФХЦЧШЩЭЮЯ





Тексты песен :     A B C D E F G H I J K L M N O P Q R S T U V W X Y Z #

ПОЛНЫЙ СПИСОК ПЕСЕН ГРУППЫ




-->



АРИЯ   

Прощай, Норфолк!
----------------
tabbed by Vladimir Gelfand ("Little Prince")

Tempo: moderately (90 bpm)

INTRO:

(0:02 - 0:23)

RIFF 1 (Play 2 times):
E||-------------------------------------------------|-------------------------------------------------|
H||-------------------------------------------------|-------------------------------------------------|
G||-------------------------------------------------|-------------------------------------------------|
D||-4-----------------------------------4-----------|-------4-----2-h4--------4-p2-----4-p2-----------|
A||-5--------------------------4--5--7-----7--5--4--|-0-----0-----0-----------0-----0--0-----0--4--5--|
E||-7-----------------------------------------------|-------------------------------------------------|


E|--------------------------------------------------|-------------------------------------------------||
H|--------------------------------------------------|-------------------------------------------------||
G|--------------------------------------------------|-------------------------------------------------||
D|--------------------------------------4-----------|-------------------------------------------------||
A|--7-----5--4-----------------------7-----7--5--4--|-5--------7--------5--------4--------5--7--5--4--||
E|--------------------------------------------------|-------------------------------------------------||

(0:24 - 0:44)

VERSE 1:

VoiceE|---------------------------------------------------------------------------------------------------|
     H|---------------------------------------------------------------------------------------------------|
     G|---------------------------------------------------------------------------------------------------|
     D|---------------------------------------------------------------------------------------------------|
     A|----2-2----4--5--5-----7-9-9-----10--9------------2--2------4--5----5----7-9-9-----10--9-----------|
     E| V nebe   na bitvu   shodilis'    orly,         lyudyam  dlya voyn ne  hvatalo     zemli - i.      |
      |                                                 |                                                 |
Gtr. E|-------------------------------------------------|-------------------------------------------------|
     H|-------------------------------------------------|-------------------------------------------------|
     G|-------------------------------------------------|-------------------------------------------------|
     D|-9-----------------------------------------------|-------------------------------------------------|
     A|-9-----------------------------------------------|-5--5--5--5--5--5--5--5--5--5--5--5--5--5--5--5--|
     E|-7--7--7--7--7--7--7--7--7--7--7--7--7--7--7--7--|-------------------------------------------------|
 
VoiceE|---------------------------------------------------------------------------------------------------|
     H|---------------------------------------------------------------------------------------------------|
     G|---------------------------------------------------------------------------------------------------|
     D|---------------------------------------------------------------------------------------------------|
     A|-2-----------------5-----8-----8-8-----8----7---5--5-----------2-----------------------------------|
     E| O        -        o  -  o!   Leto zhglo  svoy vosho     -     od.  -------------------------------|
      |                                                 |                                                 |
Gtr. E|-------------------------------------------------|-------------------------------------------------|
     H|-------------------------------------------------|-------------------------------------------------|
     G|-------------------------------------------------|-------------------------------------------------|
     D|-5-----------------------8-----------------------|-9------------------------------5-----------8----|
     A|-5-----------------------8-----------------------|-9------------------------------5-----------8----|
     E|-3--3--3--3--3--3--3--3--6--6--6--6--6--6--6--6--|-7--7--7--7--7--7--7--7--3--3-3-3----6--6-6-6----|
 
VoiceE|---------------------------------------------------------------------------------------------------|
     H|---------------------------------------------------------------------------------------------------|
     G|---------------------------------------------------------------------------------------------------|
     D|---------------------------------------------------------------------------------------------------|
     A|--2---2----4-5-5-----7---9-9-----10--9------------2--2------4--5-5-------7-9-9----10----9----------|
     E| Nemtzy    ubityh   taschili    vo rvy,        v boy ang - lichane     brosalis' kak l'vy - y.     |
      |                                                 |                                                 |
Gtr. E|-------------------------------------------------|-------------------------------------------------|
     H|-------------------------------------------------|-------------------------------------------------|
     G|-------------------------------------------------|-------------------------------------------------|
     D|-9-----------------------------------------------|-------------------------------------------------|
     A|-9-----------------------------------------------|-5--5--5--5--5--5--5--5--5--5--5--5--5--5--5--5--|
     E|-7--7--7--7--7--7--7--7--7--7--7--7--7--7--7--7--|-------------------------------------------------|
 
VoiceE|---------------------------------------------------------------------------------------------------|
     H|---------------------------------------------------------------------------------------------------|
     G|---------------------------------------------------------------------------------------------------|
     D|---------------------------------------------------------------------------------------------------|
     A|-2-----------------5-----8-----8----8--8---7--5---5-----------2------------------------------------|
     E| O        -        o  -  o!  Shel pyatnadtzatyy  go     -     od.            ----------------------|
      |                                                 |                                                 |
Gtr. E|-------------------------------------------------|-------------------------------------------------|
     H|-------------------------------------------------|-------------------------------------------------|
     G|-------------------------------------------------|-------------------------------------------------|
     D|-5-----------------------8-----------------------|-9--------------------------------------------4--|
     A|-5-----------------------8-----------------------|-9--------------------------------------------4--|
     E|-3--3--3--3--3--3--3--3--6--6--6--6--6--6--6--6--|-7--7--7--7--7--7--7--7-----------------------2--|

(0:45 - 1:19)

CHORUS:

VoiceE|---------------------------------------------------------------------------------------------------|
     H|---------------------------------------------------------------------------------------------------|
     G|---------------------------------------------------------------------------------------------------|
     D|---------------------------------------------------------------------------------------------------|
     A|-------9------7----5-----9-------------------------------2-----4------5----7----5---4----5---2-----|
     E|---  Pros - chay, Nor - folk!                           Za   chest'  ko - ro - ny  my    umryom  --|
      |                                                 |                                                 |
Gtr. E|-------------------------------------------------|-------------------------------------------------|
     H|-------------------------------------------------|-------------------------------------------------|
     G|-------------------------------------------------|-------------------------------------------------|
     D|-5-----------------------------------4-----------|-------------------------------------------------|
     A|-5--------------------------4--5--7-----7--5--4--|-------------------------------------------------|
     E|-3-----------------------------------------------|-7-----------------------------------------------|
 
VoiceE|---------------------------------------------------------------------------------------------------|
     H|---------------------------------------------------------------------------------------------------|
     G|---------------------------------------------------------------------------------------------------|
     D|---------------------------------------------------------------------------------------------------|
     A|-------9------7----5-----9-------------------------------0-----4-----5-----7-----5-------5-7--5----|
     E|---  Pros - chay, Nor - folk!                           My  v ray    ed - va    li      popadyom --|
      |                                                 |                                                 |
Gtr. E|-------------------------------------------------|-------------------------------------------------|
     H|-------------------------------------------------|-------------------------------------------------|
     G|-------------------------------------------------|-------------------------------------------------|
     D|-------------------------------------4-----------|-------------------------------------------------|
     A|----------------------------4--5--7-----7--5--4--|-------------------------------------------------|
     E|-------------------------------------------------|-5-----------------------------------------------|
 
VoiceE|---------------------------------------------------------------------------------------------------|
     H|---------------------------------------------------------------------------------------------------|
     G|---------------------------------------------------------------------------------------------------|
     D|---------------------------------------------------9-----7-----------------------------------------|
     A|-------9------9-9---9---10-----9-----7----5----------------9--------9------7-----------------------|
     E|--  Shtyk v spine,  a   pu - lya  v serdtze    -   ot - poyot     sha  -  kal.      ---------------|
      |                                                 |                                                 |
Bass G|-------------------------------------------------|-------------------------------------------------|
     D|-------------------------------------------------|-------------------------------------------------|
     A|-5-----5-----5-----5-----------------------------|-------------------------------------------------|
     E|-------------------------8-----8-----8-----8-----|-7-----7-----7-----7-----6-----6-----6-----6-----|
 
VoiceE|---------------------------------------------------------------------------------------------------|
     H|---------------------------------------------------------------------------------------------------|
     G|---------------------------------------------------------------------------------------------------|
     D|---------------------------------------------------------------------------------------------------|
     A|------9---9----9----9---10-----9-----7-------5-----5------7----8-----10---10-----------------------|
     E|--  Myortvym sla - voy  ne    sog - ret' - sya,  kto  b  ni   sog - re  - va - al.  ---------------|
      |                                                 |                                                 |
Bass G|-------------------------------------------------|-------------------------------------------------|
     D|-------------------------------------------------|-------------------------------------------------|
     A|-5-----5-----5-----5-----------------------------|-------------------------------------------------|
     E|-------------------------8-----8-----8-----8-----|-6-----6-----6-----6-----8-----8-----8-----8-----|
 
VoiceE|---------------------------------------------------------------------------------------------------|
     H|---------------------------------------------------------------------------------------------------|
     G|---------------------------------------------------------------------------------------------------|
     D|---------------------------------------------------9------7----------------------------------------|
     A|-------9-9----9-----9----10---9-------7----5-------------------9-----9----7------------------------|
     E|-- V zhilah krov'  su - ro - vyh   brit - tov    byot - sya  slov - no   tok.       ---------------|
      |                                                 |                                                 |
Bass G|-------------------------------------------------|-------------------------------------------------|
     D|-------------------------------------------------|-------------------------------------------------|
     A|-5-----5-----5-----5-----------------------------|-------------------------------------------------|
     E|-------------------------8-----8-----8-----8-----|-7-----7-----7-----7-----6-----6-----6-----6-----|
 
VoiceE|---------------------------------------------------------------------------------------------------|
     H|---------------------------------------------------------------------------------------------------|
     G|---------------------------------------------------------------------------------------------------|
     D|---------------------------------------------------------------------------------------------------|
     A|------9-----9-9------9---10-----9-----7-5----------5-----------7-----------8----------10-----------|
     E|--  Smert' segod - nya  bu  -  det   sytoy,       da         hra    -     nit        vas        ---|
      |                                                 |                                                 |
Bass G|-------------------------------------------------|-------------------------------------------------|
     D|-------------------------------------------------|-------------------------------------------------|
     A|-5-----5-----5-----5-----------------------------|-------------------------------------------------|
     E|-------------------------8-----8-----8-----8-----|-6-----6-----6-----6-----8-----8-----8-----8-----|
 
VoiceE|-------------------------------------------------|
     H|-------------------------------------------------|
     G|-------------------------------------------------|
     D|-------------------------------------------------|
     A|---9---------------------------------------------|
     E|- booooooooooooooooooooooog !  ------------------|
      |                                                 |
Bass G|-------------------------------------------------|
     D|-------------------------------------------------|
     A|-5-----5-----5-----5-----5-----------------------|
     E|-------------------------------------------------|

(1:19 - 1:40) VERSE 2

(1:40 - 2:14) CHORUS

(2:15 - 2:25)

RIFF 2:(play 2 times)

Gtr.1E||-------------------------------------------------|-------------------------------------------------||
Gtr.2H||-------------------------------------------------|-------------------------------------------------||
     G||-------------------------------------------------|-------------------------------------------------||
     D||-4--------4--------4--------4--------4-/5-\4-/5--|-4--------4--------4--------4--------------------||
     A||-4--------4--------4--------4--------4-/5-\4-/5--|-4--------4--------4--------4--------0--1--0-----||
     E||-2--2--2--2--2--2--2--2--2--2--2--2--2-/3-\2-/3--|-2--2--2--2--2--2--2--2--2--2--2--2-----------3--||

(2:25 - 2:46)

SOLO A: (incomplete)

Gtr.1E|--7--------------4--5--4-----------------4--5-----|-------------------------------------------------|
     H|--------------7---------------------5h7-----------|-------------------------------------------------|
     G|-----------------------------------------------6~~|(6)~~~~~~~~-<7>-6-h7--4-----------........-------|
     D|--------------------------------------------------|-------------------------------------------------|
     A|--------------------------------------------------|-------------------------------------------------|
     E|--------------------------------------------------|-------------------------------------------------|
      |                                                  |                                                 |
Gtr.2E|--------------------------------------------------|-------------------------------------------------|
     H|--------------------------------------------------|-------------------------------------------------|
     G|--------------------------------------------------|-------------------------------------------------|
     D|--------------------------------------7-----7--4--|(4)-------------------------4--3-----3-----------|
     A|--2--2--2--2--2--2--2--2--2--2--2--2--5-----5--2--|(2)-2--2--2--2--2--2--2--2--------5-----5--4--2--|
     E|--------------------------------------------------|-------------------------------------------------|
 
Gtr.1E|--------------------------------------------------|-------------------------------------------------|
     H|--N.H.----------<7>-------------------------------|-------------------------------------------------|
     G|-<3+><5>---...------8p7---9-p8-----...---------11~~~~~~~~~~~~~~~~~~~~~~~~~~~~~~~--------------------|
     D|--------5--------------7--------8-----------------|-------------------------------------------------|
     A|--------------------------------------------------|-------------------------------------------------|
     E|--------------------------------------------------|-------------------------------------------------|
      |                                                  |                                                 |
Gtr.2E|--------------------------------------------------|-------------------------------------------------|
     H|--------------------------------------------------|-------------------------------------------------|
     G|--------------------------------------------------|-------------------------------------------R-----|
     D|--------------------------------------7-----7--4--|(4)-------------------------4--3-----3-----E-----|
     A|-(2)-2--2--2--2--2--2--2--2--2--2--2--5-----5--2--|(2)-2--2--2--2--2--2--2--2--------5-----5--S-----|
     E|--------------------------------------------------|-------------------------------------------T-----|
 
Gtr.1E|15p14h15p14p12-16p14-16p14p12-15p14h15p14p12-----------------------|-------------------------------------------------|
     H|--------------------------14--12------------12-----|-12-----------------------------------------------|
     G|--------------------------------13p11---------13p11-|---13p11-----------T----T--------------------------|
     D|-------------------------------------14p11--------|-------14p11h14p11\9--14p11p9-14p11p9------..----------------|
     A|--------------------------------------------------|-------------------------------------------------|
     E|--------------------------------------------------|----------------------------------------------11-|
      |                                                  |                                                 |
Gtr.2E|--------------------------------------------------|-------------------------------------------------|
     H|--------------------------------------------------|-------------------------------------------------|
     G|--------------------------------------------------|-------------------------------------------------|
     D|--------------------------------------9-----9--6--|(6)-------------------------6--5-----5-----------|
     A|--4--4--4--4--4--4--4--4--4--4--4--4--7-----7--4--|(4)-4--4--4--4--4--4--4--4--------7-----7--6--4--|
     E|--------------------------------------------------|-------------------------------------------------|
 
Gtr.1E|--------------------------------------------------|----15p14p12-------------------------------------------|
     H|--------------------------------------------------|-14----------16p14h16-------------------------------------|
     G|--------------------------------------------------|---------------------13h15p13h15------------------------------|
     D|------------------------11b13r11---11bf~~~~~~~~---|-------------------------------15p13--...----------------------|
     A|-----------------9--------------11----------------|-------------------------------------------------|
     E|-\9-----9-11-12-----9h12--------------------------|-------------------------------------------------|
      |                                                  |                                                 |
Gtr.2E|--------------------------------------------------|-------------------------------------------------|
     H|--------------------------------------------------|-------------------------------------------------|
     G|--------------------------------------------------|-------------------------------------------R-----|
     D|--------------------------------------9-----9--6--|(6)-------------------------6--5-----5-----E-----|
     A|-(4)-4--4--4--4--4--4--4--4--4--4--4--7-----7--4--|(4)-4--4--4--4--4--4--4--4--------7-----7--S-----|
     E|--------------------------------------------------|-------------------------------------------T-----|

(2:47 - 2:57) Repeat RIFF 2 (2 times)

(2:57 - 3:43)

SOLO B:

Gtr.1E|-- play this and next line with wah pedal -------|----------------------------------9--------11----|
     H|-------------------------------------------------|-------------------7-----10----------------------|
     G|-------------------------------------------------|-------------------------------------------------|
     D|-4-----------------4-----6-----------------9-----|-7-----------------------------------------------|
     A|----------4-----------------------4--------------|----------9--------------------------------------|
     E|-------------------------------------------------|-------------------------------------------------|


Gtr.1E|-9-----------------------7-----------------------|-------------------------------------------------|
     H|----------9-----------------------7--------7-----|-10----------------------------------------------|
     G|----------------6--6--------------------6--------|----------9-----6-h9-p6----------------------- T |
     D|-------------------------------------------------|-------------------------6-/wah effect/--------16p|
     A|-------------------------------------------------|-------------------------------------------------|
     E|-------------------------------------------------|-------------------------------------------------|


Gtr.1E|-------------------------------------------------|-------------------------------------------------|
     H|------------------------------------------------ T - T - T - T - T - T - T - T -- T - T -----------|
     G|--- T - T - T - T - T - T - T - T -- T - T - T --16p4-16p4-16p4-16p6-16p6-16p6-16p7-16p7-16p7-16p6~~~~~~~~~-|
     D|-p4-16p4-16p4-16p5-16p5-16p5-16p7-16p7-16p7-16p5-16p5-16p5-|-------------------------------------------------|
     A|-------------------------------------------------|-------------------------------------------------|
     E|-------------------------------------------------|-------------------------------------------------|


Gtr.1E|-------------------------------------------------|-------------------------------------------------|
     H|-------------------------------------------7---7-|-10-7h10-11-8h11-12-9h12-13-10h13-14-11h14-15-12h15-16-13h16-17-14h17-|
     G|-------------------------------6---6-9-6-9---9---|-------------------------------------------------|
     D|-------------------7---7-9-7-9---9---------------|-------------------------------------------------|
     A|-------7---7-9-7-9---9---------------------------|-------------------------------------------------|
     E|-9-7-9---9---------------------------------------|-------------------------------------------------|


Gtr.1E|-------------------------------------------------|-------------------------------------------------|
Gtr.2H|-19-15----17-15----19-15----17-15----19-15----17-|-15----19-15----17-15----19-15----15-14-15-17-19-|
     G|-19-14-14-16-14-14-19-14-14-16-14-14-19-14-14-16-|-14-14-19-14-14-16-14-14-19-14-14-14----14-16-18-|
     D|-------16-------16-------16-------16-------16----|----16-------16-------16-------16----17----------|
     A|-------------------------------------------------|-------------------------------------------------|
     E|-------------------------------------------------|-------------------------------------------------|


Gtr.1E|-------------------------------------------------|-------------------------------------------------|
Gtr.2H|-19-15----17-15----19-15----17-15----19-15----17-|-15----19-15----17-15----19-15----15-14-15-17-19-|
     G|-19-14-14-16-14-14-19-14-14-16-14-14-19-14-14-16-|-14-14-19-14-14-16-14-14-19-14-14-14----14-16-18-|
     D|-------16-------16-------16-------16-------16----|----16-------16-------16-------16----17----------|
     A|-------------------------------------------------|-------------------------------------------------|
     E|-------------------------------------------------|-------------------------------------------------|


Gtr.1E|-17-14----15-14----17-14----15-14----17-14----15-|-14----17-14----15-14----17-14----14-12-14-15-17-|
Gtr.2H|-19-15-15-17-15-15-19-15-15-17-15-15-19-15-15-17-|-15-15-19-15-15-17-15-15-19-15-15-15-14-15-17-19-|
     G|-------14-------14-------14-------14-------14----|----14-------14-------14-------14----------------|
     D|-------------------------------------------------|-------------------------------------------------|
     A|-------------------------------------------------|-------------------------------------------------|
     E|-------------------------------------------------|-------------------------------------------------|


Gtr.1E|-17-14----15-14----17-14----15-14----17-14----15-|-14----17-14----15-14----17-14----14-12-14-15-17-|
Gtr.2H|-19-15-15-17-15-15-19-15-15-17-15-15-19-15-15-17-|-15-15-19-15-15-17-15-15-19-15-15-15-14-15-17-19-|
     G|-------14-------14-------14-------14-------14----|----14-------14-------14-------14----------------|
     D|-------------------------------------------------|-------------------------------------------------|
     A|-------------------------------------------------|-------------------------------------------------|
     E|-------------------------------------------------|-------------------------------------------------|


Gtr.1E|-14----------------------------------------------|
Gtr.2H|-15----------------------------------------------|
     G|-14----------------------------------------------|
     D|--0----------------------------------------------|
     A|-------------------------------------------------|
     E|-------------------------------------------------|

(3:43 - 4:04) Repeat RIFF 1 (2 times)

(4:04 - 4:25) VERSE 3

(4:25 - 5:15) CHORUS, slows down at the end.

 






                       


Copyright © Музыкальный Портал на Куличках 1999-2007      music@kulichki.com


    Stolica.ru    
Реклама в Интернет