Stolica.ru Реклама на Куличках     

Аккорды песен:
A B C D E F G H I J K L M N O P Q R S T U V W X Y Z
АБВГДЕЖЗИКЛМНОПРСТУФХЦЧШЩЭЮЯ





Тексты песен :     A B C D E F G H I J K L M N O P Q R S T U V W X Y Z #

ПОЛНЫЙ СПИСОК ПЕСЕН ГРУППЫ




-->



АРИЯ   

Дай жару
--------
tabbed by Vladimir Gelfand ("Little Prince")


Tempo: 128 quarternotes per minute

INTRO:

(0:02 - 0:13)

E||-------------------------|-7-----------------------|-------------------------||
H||-------------------------|-0-----------------------|-------------------------||
G||-------------------------|-------------------------|-------------------------||} repeat
D||-------9--------7--------|-------------------------|-------------------------||}   2
A||----9--------7-----------|-------------------------|-------------------------||} times
E||-7--------5--------------|-------------------------|-------------------------||

(0:14 - 0:18)

E|---------------------------------|---------------------------------|--- 3/4 measure ---------|
H|---------------------------------|---------------------------------|---------------------7---|
G|---------------------------------|---------------------------------|---------------------7---|
D|---------9-----------7---5-------|-(5)-----------------------------|---------------------7---|
A|-----9-----------7-------5-------|-(5)-----------------------------|-5---4---5---4-------5---|
E|-7-----------5-----------3-------|-(3)-----------------------------|-3---2---3---2---0-------|

(0:19 - 0:34)

RIFF 1:

E|---------------------------------|---------------------------------|
H|(7)------------------------------|-----7-7-7---7-7-7---7-7-7---7-7-|
G|(7)------------------------------|-----7-7-7---7-7-7---7-7-7---7-7-|
D|(7)------------------------------|-----7-7-7---7-7-7---7-7-7---7-7-|
A|(5)--5-5-5---5-5-5---5-5-5---5-5-|-5---5-5-5---5-5-5---5-5-5---5-5-|
E|---------------------------------|---------------------------------|


E|---------------------------------|---------------------------------|
H|-5-------------------------------|-----5-5-5---5-5-5---5-5-5---5-5-|
G|-5-------------------------------|-----5-5-5---5-5-5---5-5-5---5-5-|
D|-5-------------------------------|-----5-5-5---5-5-5---5-5-5---5-5-|
A|-3---3-3-3---3-3-3---3-3-3---3-3-|-3---3-3-3---3-3-3---3-3-3---3-3-|
E|---------------------------------|---------------------------------|


E|---------------------------------|---------------------------------|
H|-3-------------------------------|-----3-3-3---3-3-3---3-3-3---3-3-|
G|-4-------------------------------|-----4-4-4---4-4-4---4-4-4---4-4-|
D|-5-------------------------------|-----5-5-5---5-5-5---5-5-5---5-5-|
A|-5-------------------------------|-----5-5-5---5-5-5---5-5-5---5-5-|
E|-3---3-3-3---3-3-3---3-3-3---3-3-|-3---3-3-3---3-3-3---3-3-3---3-3-|


E|---------------------------------|---------------------------------|
H|---------------------------------|---------------------------------|
G|-7-------------------------------|-----7-7-7---7-7-7---7-7-7---7-7-|
D|-7-------------------------------|-----7-7-7---7-7-7---7-7-7---7-7-|
A|-5---5-5-5---5-5-5---5-5-5---5-5-|-5---5-5-5---5-5-5---5-5-5---5-5-|
E|---------------------------------|---------------------------------|

(0:34 - 1:04)

VERSE 1:

VoiceE|-------------------------------------------------------------------|
     H|-------------------------------------------------------------------|
     G|-------------------------------------------------------------------|
     D|----------4----4-----4------2-0----2-----4-------------------------|
     A|-------------------------------------------------------------------|
     E|-      Chto   za   skorb - nyye   li - tza?          --------------|
      |                                 |                                 |
Gtr. E|---------------------------------|---------------------------------|
     H|-7-------------------------------|---------------------7-7-7---7-7-|
     G|-7-------------------------------|---------------------7-7-7---7-7-|
     D|-7-------------------------------|---------------------7-7-7---7-7-|
     A|-5---5-5-5---5-5-5---5-5-5---5-5-|-5---5-5-5---5-5-5---5-5-5---5-5-|
     E|---------------------------------|---------------------------------|
 
VoiceE|-------------------------------------------------------------------|
     H|-------------------------------------------------------------------|
     G|----------------------------------2---2--2---------4---------------|
     D|---------4----4----4------2---0----------------------4-----2-------|
     A|-------------------------------------------------------------------|
     E|-     Slyo - zy  lyut - sya  ruchyom, i dozhd' v prida - chu  -----|
      |                                 |                                 |
Gtr. E|---------------------------------|---------------------------------|
     H|-5-------------------------------|---------------------5-5-5---5-5-|
     G|-5-------------------------------|---------------------5-5-5---5-5-|
     D|-5-------------------------------|---------------------5-5-5---5-5-|
     A|-3---3-3-3---3-3-3---3-3-3---3-3-|-3---3-3-3---3-3-3---3-3-3---3-3-|
     E|---------------------------------|---------------------------------|
 
VoiceE|-------------------------------------------------------------------|
     H|-------------------------------------------------------------------|
     G|-------------------------------------------------------------------|
     D|---------4----4--4----2------0----2----4--------------0-0------0---|
     A|-------------------------------------------------------------------|
     E|-       Ty   razvo - dish'  ru - ka - mi      -      delo    tru-  |
      |                                 |                                 |
Gtr. E|---------------------------------|---------------------------------|
     H|-3-------------------------------|-----------------------------3-3-|
     G|-4-------------------------------|-----------------------------4-4-|
     D|-5-------------------------------|-----------------------------5-5-|
     A|-5-------------------------------|-----------------------------5-5-|
     E|-3---3-3-3---3-3-3---3-3-3---3-3-|-3---3-3-3---3-3-3---3-3-3---3-3-|
 
VoiceE|-------------------------------------------------------------------|
     H|-------------------------------------------------------------------|
     G|-------------------------------------------------------------------|
     D|--4----------------------------------------------------------------|
     A|-------------------------------------------------------------------|
     E| ba.     ----------------------------------------------------------|
      |                                 |                                 |
Gtr. E|---------------------------------|---------------------------------|
     H|---------------------------------|---------------------------------|
     G|-7-------------------------------|-----------------------------7-7-|
     D|-7-------------------------------|-----------------------------7-7-|
     A|-5---5-5-5---5-5-5---5-5-5---5-5-|-5---5-5-5---5-5-5---5-5-5---5-5-|
     E|---------------------------------|---------------------------------|
 
Mozhno zaprosto spit'sya.    
Nas horonyat zhivyom i schyot oplachen    
Vse proschayutsya s nami - traurnyy bal.

(1:04 - 1:18)

BRIDGE:

  Bol'she  molchat'  ne v moch'.                      
E|---------------------------------|---------------------------------|
H|---------------------------------|---------------------------------|
G|---------------------------------|---------------------------------|
D|---------9-----------7---5-------|-(5)-----------------------------|
A|-----9-----------7-------5-------|-(5)-----------------------------|
E|-7-----------5-----------3-------|-(3)-------------5---3---2---3---|

   Yumor  cherney  chem   noch'.                    
E|---------------------------------|---------------------------------|
H|---------------------------------|---------------------------------|
G|---------------------------------|---------------------------------|
D|---------9-----------7---5-------|-(5)-----------------------------|
A|-----9-----------7-------5-------|-(5)-----------------------------|
E|-7-----------5-----------3-------|-(3)-------------5---3---2---3---|

 Smozhet od - no     po - moch'           ----      nash     uuuu - 
E|---------------------------------|---------------------------------|
H|---------------------------------|---------------------------------|
G|---------------------------------|---------------------------------|
D|---------9-----------7---5-------|-(5)-----------------------------|
A|-----9-----------7-------5-------|-(5)-----------------------------|
E|-7-----------5-----------3-------|-(3)-------------5---3---2---3---|

   daaaaaaaaaaaaaaaaaaaaaaaaa   -    ar!  
E|---------------------------------|---------------------------------|
H|---------------------------------|---------------------------------|
G|---------------------------------|-2-----------2-------------------|
D|-2-----------2-------------------|-2-----------2-------------------|
A|-2-----------2-------------------|-0---0---0---0---0---0---0-0-0---|
E|-0---0---0---0---0---0---2---0---|---------------------------------|

(1:19 - 1:33)

CHORUS:

VoiceE|-------------------------------------------------------------------|
     H|-------------------------------------------------------------------|
     G|-------------------------------------------------------------------|
     D|--4----------2------------------------------------------------2----|
     A|------------------5------------------------------------5-5------5--|
     E| Day       zha - ru !                               Chtoby  znali, |
      |                                 |                                 |
Gtr. E|---------------------------------|---------------------------------|
     H|---------------------------------|---------------------------------|
     G|-7-------------------------------|---------------------7-7-7---7-7-|
     D|-7-------------------------------|---------------------7-7-7---7-7-|
     A|-5---5-5-5---5-5-5---5-5-5---5-5-|-5---5-5-5---5-5-5---5-5-5---5-5-|
     E|---------------------------------|---------------------------------|
 
VoiceE|-------------------------------------------------------------------|
     H|-------------------------------------------------------------------|
     G|-------------------------------------------------------------------|
     D|--4----------2------------------------------------------------2----|
     A|------------------5------------------------------------5-5------5--|
     E| day       zha - ru !                               Chtoby  znali, |
      |                                 |                                 |
Gtr. E|---------------------------------|---------------------------------|
     H|---------------------------------|---------------------------------|
     G|-7-------------------------------|---------------------7-7-7---7-7-|
     D|-7-------------------------------|---------------------7-7-7---7-7-|
     A|-5---5-5-5---5-5-5---5-5-5---5-5-|-5---5-5-5---5-5-5---5-5-5---5-5-|
     E|---------------------------------|---------------------------------|
 
VoiceE|-------------------------------------------------------------------|
     H|-------------------------------------------------------------------|
     G|-------------------------------------------------------------------|
     D|--3------3----3------2-------------5-------3-3---3---3---3----2----|
     A|--------------------------5-------------------------------------5--|
     E| kak    de - lat'   de - lo,       au!,   poka  ne  zarzha - velo, |
      |                                 |                                 |
Gtr. E|---------------------------------|---------------------------------|
     H|---------------------------------|---------------------------------|
     G|-3-------------------------------|-5-------------------------------|
     D|-3-------------------------------|-5-------------------------------|
     A|-1---1-1-1---1-1-1---1-1-1---1-1-|-3---3-3-3---3-3-3---3-3-3---3-3-|
     E|---------------------------------|---------------------------------|
 
VoiceE|-------------------------------------------------------------------|
     H|-------------------------------------------------------------------|
     G|-------------------------------------------------------------------|
     D|--4----------2-----------------------------------------------------|
     A|------------------5------------------------------------------------|
     E| day       zha - ru !                               ---------------|
      |                                 |                                 |
Gtr. E|---------------------------------|---------------------------------|
     H|---------------------------------|---------------------------------|
     G|-7-------------------------------|---------------------7-7-7---7-7-|
     D|-7-------------------------------|---------------------7-7-7---7-7-|
     A|-5---5-5-5---5-5-5---5-5-5---5-5-|-5---5-5-5---5-5-5---5-5-5---5-5-|
     E|---------------------------------|---------------------------------|

(1:33 - 2:03) VERSE 2

(2:03 - 2:18) BRIDGE

(2:18 - 2:33) CHORUS

(2:33 - 3:16)

SOLO:
E|-------------------------------------------------|-------------------------------------------------|
H|-------------------------------------------------|-------------------------------------------------|
G|-------------------------------------------------|-------------------------------------------------|
D|-------------7-----9-----10----------------------|-------9bend10-----9-p7--9-----7-----------------|
A|-------------------------------------------------|-------------------------------------------------|
E|-------------------------------------------------|-------------------------------------------------|


E|-------------------------------------------------|-------------------------------------------------|
H|-----------------------------------------7---9---|-10---/12--------12bend14------------------------|
G|------------------------------6---7---9----------|-------------------------------------------------|
D|-------------------6---7---9---------------------|-------------------------------------------------|
A|-------------7--9--------------------------------|-------------------------------------------------|
E|-------------------------------------------------|-------------------------------------------------|


E|-------------------------------------------------|-------------------------------------------------|
H|-----12p10p9----10p9-----------------------------------|--------??? some bends or tremolo bar effects ---|
G|-------------11------11p9------9-----------------------|-------------------------------------------------|
D|----------------------------11---12--11----------------|-------------------------------------------------|
A|-------------------------------------12----------|-------------------------------------------------|
E|-------------------------------------------------|-------------------------------------------------|


E|-------------17----------------17----19----17----|-22----22----20----20----17----------------------|
H|-17----17----------17----17----------------------|-------------------------------------------------|
G|-------------------------------------------------|-------------------------------------------------|
D|-------------------------------------------------|-------------------------------------------------|
A|-------------------------------------------------|-------------------------------------------------|
E|-------------------------------------------------|-------------------------------------------------|


E|-------------------------------------------------|-------------------------------------------------|
H|-------------------------------------------------|-12----------------------------------------------|
G|-------------------------------11--12--14--12p11-|------------------------------/16----16----14----|
D|-12----------------------------------------------|-------------------------------------------------|
A|-------------------------------------------------|-------------------------------------------------|
E|-------------------------------------------------|-------------------------------------------------|


E|-------------------------------------------------|-------------------------------------------------|
H|---------------------------------/17p15p14-15h17-|-17bend19----17bend19----17bend19----------------|
G|-------------------------------------------------|-------------------------------------------------|
D|-17----------------------------------------------|-------------------------------------------------|
A|-------------------------------------------------|-------------------------------------------------|
E|-------------------------------------------------|-------------------------------------------------|


E|-------------------------------------------------|-------------------------------------------------|
H|--------//13bend15.......rel13p11----10----------|-------------------------------------------------|
G|------------------ hold -----------------12--10--|---------------------------------------------10--|
D|-------------------------------------------------|-12--10------------------------------10--12------|
A|-------------------------------------------------|---------12--10--------------10--12--------------|
E|-------------------------------------------------|-----------------13--10--13----------------------|


E|-------------------------------------------------|-------------------------------------------------|
H|-------------------------10----------------------|-------------------------------------------------|
G|-------------11----12----------12----11----12----|-11----12p11-------11----12p11------11b12--------|
D|-------------------------------------------------|-------------12----------------12----------12----|
A|-------------------------------------------------|-------------------------------------------------|
E|-------------------------------------------------|-------------------------------------------------|


E|-------------------------------------------------|-------------------------------------------------|
H|-12----------------10----------------8-----------|-(8)---------------------8-----7-----8-----10----|
G|-11-----------------9----------------7-----------|-(7)---------------------7-----6-----7-----9-----|
D|--9-----------------7----------------5-----------|-(5)---------------------------------------------|
A|-------------------------------------------------|-------------------------------------------------|
E|-------------------------------------------------|-------------------------------------------------|


E|-------------------------------------------------|-------------------------7-----5-----7-----9-----|
H|-12----------------10----------------8-----------|-(8)---------------------8-----7-----8-----10----|
G|-11-----------------9----------------7-----------|-(7)---------------------------------------------|
D|--9-----------------7----------------5-----------|-(5)---------------------------------------------|
A|-------------------------------------------------|-------------------------------------------------|
E|-------------------------------------------------|-------------------------------------------------|


E|-10-----------------9----------------7-----------|-(7)---------------------7-----5-----7-----9-----|
H|-12----------------10----------------8-----------|-(8)---------------------8-----7-----8-----10----|
G|-11-----------------9----------------7-----------|-(7)---------------------------------------------|
D|-------------------------------------------------|-------------------------------------------------|
A|-------------------------------------------------|-------------------------------------------------|
E|-------------------------------------------------|-------------------------------------------------|


E|-(9)---------------------------------------------|-------------------------------------------------|
H|-(10)--------------------------------------------|-------------------------------------------------|
G|-------------------------------------------------|-------------------------------------------------|
D|-------------------------------------------------|-------------------------------------------------|
A|-------------------------------------------------|-------------------------------------------------|
E|-------------------------------------------------|-------------------------------------------------|

(3:17 - 4:17) CHORUS (*4 times)

(4:17 - 4:22) feedback


 






                       


Copyright © Музыкальный Портал на Куличках 1999-2007      music@kulichki.com


    Stolica.ru    
Реклама в Интернет