Stolica.ru Реклама на Куличках     

Аккорды песен:
A B C D E F G H I J K L M N O P Q R S T U V W X Y Z
АБВГДЕЖЗИКЛМНОПРСТУФХЦЧШЩЭЮЯ





Тексты песен :     A B C D E F G H I J K L M N O P Q R S T U V W X Y Z #

ПОЛНЫЙ СПИСОК ПЕСЕН ГРУППЫ




-->



АРИЯ   

Бой продолжается
----------------
tabbed by Vladimir Gelfand ("Little Prince")


Starts with sounds of the thunder

Tempo: moderately slow (105 bpm)

(0:09 - 1:05)

INTRO: (Gtr.1 - clean)

VoiceE|-------------------------------------------------------------------------------------------------------|
     H|-------------------------------------------------------------------------------------------------------|
     G|-------------------------------------------------------------------------------------------------------|
     D|---7--7---7--------5-----7-8--------7--5--3----------7-------------------------------------------------|
     A|-------------------------------------------------------------------------------------------------------|
     E| Snova   noch',    i v glaza      vpolza - et     strah.   --------------------------------------------|
      |                         |                         |                         |                         |
Gtr.1E|-------------1--0--------|-------------1--0--------|-------------1--0--------|-------------1--0--------|
     H|----------3--------3-----|----------3--------3-----|----------3--------3-----|----------3--------3-----|
     G|-2-----2--------------2--|-3-----3--------------3--|-2-----2--------------2--|-3-----3--------------3--|
     D|----0--------------------|----0--------------------|----0--------------------|----0--------------------|
     A|-------------------------|-------------------------|-------------------------|-------------------------|
     E|-------------------------|-------------------------|-------------------------|-------------------------|
      |                         |                         |                         |                         |
Bass G|-------------------------|-------------------------|-------------------------|-------------------------|
     D|-7--7--7--7--7--7--7--7--|-8--8--8--8--8--8--10-10-|-7--7--7--7--7--7--7--7--|-8--8--8--8--8--8--8--8--|
     A|-------------------------|-------------------------|-------------------------|-------------------------|
     E|-------------------------|-------------------------|-------------------------|-------------------------|
 
VoiceE|-------------------------------------------------------------------------------------------------------|
     H|-------------------------------------------------------------------------------------------------------|
     G|-------------------------------------------------------------------------------------------------------|
     D|--7----7---7--------5---3-5------------3---2-----------------------------------------------------------|
     A|-----------------------------5-----------------3------5------------------------------------------------|
     E| Son   i smert'    tak pohozhi,      brat  i  se - stra.   --------------------------------------------|
      |                         |                         |                         |                         |
Gtr.1E|-------------1--0--------|-------------1--0--------|-------------1--0--------|-------------1--0--------|
     H|----------3--------3-----|----------3--------3-----|----------3--------3-----|----------3--------3-----|
     G|-2-----2--------------2--|-3-----3--------------3--|-2-----2--------------2--|-3-----3--------------3--|
     D|----0--------------------|----0--------------------|----0--------------------|----0--------------------|
     A|-------------------------|-------------------------|-------------------------|-------------------------|
     E|-------------------------|-------------------------|-------------------------|-------------------------|
      |                         |                         |                         |                         |
Bass G|-------------------------|-------------------------|-------------------------|-------------------------|
     D|-7--7--7--7--7--7--7--7--|-8--8--8--8--8--8--10-10-|-7--7--7--7--7--7--7--7--|-8--8--8--8--8--8--8--8--|
     A|-------------------------|-------------------------|-------------------------|-------------------------|
     E|-------------------------|-------------------------|-------------------------|-------------------------|
 
VoiceE|-------------------------------------------------------------------------------------------------------|
     H|-------------------------------------------------------------------------------------------------------|
     G|---------------------------------------10-----9--------------------------------------------------------|
     D|---7----7---7-------5--7---8-------8-----------------7-----------------5---3--5------------------------|
     A|---------------------------------------------------------------------------------5---------------------|
     E| Strashno  byt'     odno- mu       i zhdat'  ras - svet,              kak spasenya   ------------------|
      |                         |                         |                         |                         |
Gtr.1E|-------------1--0--------|-------------1--0--------|-------------1--0--------|-------------1--0--------|
     H|----------3--------3-----|----------3--------3-----|----------3--------3-----|----------3--------3-----|
     G|-2-----2--------------2--|-3-----3--------------3--|-2-----2--------------2--|-3-----3--------------3--|
     D|----0--------------------|----0--------------------|----0--------------------|----0--------------------|
     A|-------------------------|-------------------------|-------------------------|-------------------------|
     E|-------------------------|-------------------------|-------------------------|-------------------------|
      |                         |                         |                         |                         |
Bass G|-------------------------|-------------------------|-------------------------|-------------------------|
     D|-7--7--7--7--7--7--7--7--|-8--8--8--8--8--8--10-10-|-7--7--7--7--7--7--7--7--|-8--8--8--8--8--8--8--8--|
     A|-------------------------|-------------------------|-------------------------|-------------------------|
     E|-------------------------|-------------------------|-------------------------|-------------------------|
 
VoiceE|-------------------------------------------------------------------------------------------------------|
     H|-------------------------------------------------------------------------------------------------------|
     G|-------------------------------------------------------------------------------------------------------|
     D|---7----7---7-------5---3--5--------2--3---2-----------------------------------------------------------|
     A|------------------------------5------------------3---5-------------------------------------------------|
     E| Strashno plyt'    po  techenyu,   voyny   u - zhe  net...    -----------------------------------------|
      |                         |                         |                         |                         |
Gtr.1E|-------------1--0--------|-------------1--0--------|-------------1--0--------|-1--0--------1--0--------|
     H|----------3--------3-----|----------3--------3-----|-------3-----------3-----|-------3-----------3--1--|
     G|-2-----2--------------2--|-3-----3--------------3--|----2-----2-----------2--|----------2--------------|
     D|----0--------------------|----0--------------------|-------------------------|-------------------------|
     A|-------------------------|-------------------------|-------------------------|-------------------------|
     E|-------------------------|-------------------------|-------------------------|-------------------------|
      |                         |                         |                         |                         |
Bass G|-------------------------|-------------------------|-7--7--7--7--7--7--7--7--|-9--9--9--9--10--9--7----|
     D|-7--7--7--7--7--7--7--7--|-8--8--8--8--10-10-10-10-|-------------------------|----------------------10-|
     A|-------------------------|-------------------------|-------------------------|-------------------------|
     E|-------------------------|-------------------------|-------------------------|-------------------------|
 
VoiceE|-------------------------------------------------------------------------------------------------------|
     H|-------------------------------------------------------------------------------------------------------|
     G|-------------------------------------------------------------------------------------------------------|
     D|--8-------7--5------------8-------7----5-------------------5---7---------------------5---7-------------|
     A|----------------8---7----------------------8--7------8-------------------------8-----------------------|
     E| Net,     a ya molchu.   Net,    ya zhgu svechu,  chtob   ne spat',         chtob   ne spat'...  ------|
      |                         |                         |                         |                         |
Gtr.1E|-------1-----3-----1-----|-------3-----5-----3-----|-------------1--0--------|-1--0-----0--1--0--------|
     H|-------------------------|-------------------------|----------3--------3-----|-------3-----------3--1--|
     G|-------------------------|-------------------------|-------2--------------2--|-------------------------|
     D|-------------------------|-------------------------|----0--------------------|-------------------------|
     A|-------------------------|-------------------------|-------------------------|-------------------------|
     E|-------------------------|-------------------------|-------------------------|-------------------------|
      |                         |                         |                         |                         |
Bass G|-------------------------|-------------------------|-7--7--7--7--7--7--7--7--|-9--9--9--9--10--9--7----|
     D|-8--8--8--8--8--8--8--8--|-10-10-10-10-10-10-10-10-|-------------------------|----------------------10-|
     A|-------------------------|-------------------------|-------------------------|-------------------------|
     E|-------------------------|-------------------------|-------------------------|-------------------------|
 
VoiceE|------------------------------------------------------------------------------------------------|
     H|------------------------------------------------------------------------------------------------|
     G|------------------------------------------------------------------------------------------------|
     D|--8-------7--5-------------8--------7--5------------------------5------7------------------------|
     A|----------------8--7------------------------8-7------3---5--------------------------------------|
     E| Net,     a ya molyus'.   Net,      a ya klyanus'   ne   ots - tu  -  pat' ...   ---------------|
      |                         |                              |                                       |
Gtr.1E|-------1-----3-----1-----|-------3-----5-----3- ritenuto ---------------------------------------|
     H|-------------------------|------------------------------|---6-s---------------------------------|
     G|-------------------------|------------------------------|--7--w---------------------------------|
     D|-------------------------|------------------------------|-0---e---------------------------------|
     A|-------------------------|------------------------------|-----e---------------------------------|
     E|-------------------------|------------------------------|-----p---------------------------------|
      |                         |                              |                                       |
Bass G|-------------------------|------------------------------|---------------------------------------|
     D|-8--8--8--8--8--8--8--8--|-10-10-10-10-10-10-10---10----|-12------10h12p10h12-------------------|
     A|-------------------------|------------------------------|---------------------------------------|
     E|-------------------------|--------------------- ritenuto ---------------------------------------|
Tempo: fast (180 bpm)
(1:06 - 1:27)
RIFF 1:
Gtr.1E|-------------------------|-------------------------|-------------------------|-------------------------|
     H|----------------------10-|-12h13p12h13-12-10-------|----------------------10-|-12h13p12h13-12-10-------|
     G|-9--------------11-12----|-------------------12-9--|-(9)------------11-12----|-------------------12-11-|
     D|-------------------------|-------------------------|-------------------------|-------------------------|
     A|-------------------------|-------------------------|-------------------------|-------------------------|
     E|-------------------------|-------------------------|-------------------------|-------------------------|
      |                         |                         |                         |                         |
Gtr.2E|-------------------------|-------------------------|-------------------------|-------------------------|
     H|-------------------------|-------------------------|-------------------------|-------------------------|
     G|-9-----------------------|-(9)------------------9--|-(9)---------------------|-(9)------------------7--|
     D|-9-----------------------|-(9)------------------10-|-(10)--------------------|-(10)-----------------7--|
     A|-7-----------------------|-(7)------------------10-|-(10)--------------------|-(10)-----------------5--|
     E|-------------------------|----------------------8--|-(8)---------------------|-(8)---------------------|
 
Gtr.1E|-------------------------|-------------------------|-------------------------|-------------------------|
     H|-------------------------|-10h12p10h12-10----------|-------------------------|-------------------------|
     G|-(11)--------------11-12-|----------------12-11-8--|-(8)---------------------|-9-----------11----------|
     D|----------------12-------|-------------------------|-------------------------|-------------------------|
     A|-------------------------|-------------------------|-------------------6--7--|-------7--9--------9--10-|
     E|-------------------------|-------------------------|-------------------------|-------------------------|
      |                         |                         |                         |                         |
Gtr.2E|-------------------------|-------------------------|-------------------------|-------------------------|
     H|-------------------------|-------------------------|-------------------------|-------------------------|
     G|-(7)---------------------|-(7)---------------------|-------------------------|-5-----------7-----------|
     D|-(7)---------------------|-(7)------------------1--|-(1)---------------------|-5-----------7-----------|
     A|-(5)---------------------|-(5)------------------2--|-(2)---------------------|-3-----------5-----------|
     E|-------------------------|----------------------2--|-(2)---------------------|-------------------------|
 
Gtr.1E|-------------------------|-10h12p10h12-10----------|-------------------------|-10h12p10h12-10----------|
     H|----------------10-12-13-|----------------13-12----|----------------10-12-13-|----------------13-12----|
     G|-12----------------------|----------------------12-|-(12)--------------------|----------------------11-|
     D|-------------------------|-------------------------|-------------------------|-------------------------|
     A|-------------------------|-------------------------|-------------------------|-------------------------|
     E|-------------------------|-------------------------|-------------------------|-------------------------|
      |                         |                         |                         |                         |
Gtr.2E|-------------------------|-------------------------|-------------------------|-------------------------|
     H|-------------------------|-------------------------|-------------------------|-------------------------|
     G|-9-----------------------|-(9)------------------9--|-(9)---------------------|-(9)------------------7--|
     D|-9-----------------------|-(9)------------------10-|-(10)--------------------|-(10)-----------------7--|
     A|-7-----------------------|-(7)------------------10-|-(10)--------------------|-(10)-----------------5--|
     E|-------------------------|----------------------8--|-(8)---------------------|-(8)---------------------|
 
Gtr.1E|-------------------------|-------------------------|-------------------------|-------------------------|
     H|----------------------12-|-13h15p13h15-13-12-------|-------------------------|-------------------------|
     G|-(11)-----------12-14----|-------------------14-11-|-(11)--------------------|-12----------14----------|
     D|-------------------------|-------------------------|-------------------------|-------------------------|
     A|-------------------------|-------------------------|-------------------9--10-|-------10-12-------12-14-|
     E|-------------------------|-------------------------|-------------------------|-------------------------|
      |                         |                         |                         |                         |
Gtr.2E|-------------------------|-------------------------|-------------------------|-------------------------|
     H|-------------------------|-------------------------|-------------------------|-------------------------|
     G|-(7)---------------------|-(7)---------------------|-------------------------|-5-----------7-----------|
     D|-(7)---------------------|-(7)------------------1--|-(1)---------------------|-5-----------7-----------|
     A|-(5)---------------------|-(5)------------------2--|-(2)---------------------|-3-----------5-----------|
     E|-------------------------|----------------------2--|-(2)---------------------|-------------------------|
(1:27 - 2:12)
VERSE 1:
VoiceE|-------------------------------------------------------------------------------------------------------|
     H|-------------------------------------------------------------------------------------------------------|
     G|-------------------------------------------------------------------------------------------------------|
     D|----------------5-----5-5--7------5-----4---------------------------------5--4-------------------------|
     A|----------------------------------------------7-7------------------------------------------------------|
     E|-------------  Ya  svyato ve  -  ril  v is - tinu                         odnu     --------------------|
      |                         |                         |                         |                         |
Gtr.1E|-------------------------|-------------------------|-------------------------|-------------------------|
     H|-------------------------|-------------------------|-------------------------|-------------------------|
     G|---- this note ends the -|-------------------------|-------------------------|-------------------------|
     D|-14--- riff 1, and it's -|-------------------------|-------------------------|-------------------------|
     A|------ not played in ----|-------------------------|-------------------------|-------------------------|
     E|------ the verse 2 ------|-------------------------|-------------------------|-------------------------|
      |                         |                         |                         |                         |
Gtr.2E|-------------------------|-------------------------|-------------------------|-------------------------|
     H|-------------------------|-------------------------|-------------------------|-------------------------|
     G|-------------------------|-------------------------|-------------------------|-------------------------|
     D|-2-----------------------|----------------------5--|(5)-------------------7--|(7)----------5-\4-p0--2--|
     A|-2-----------------------|----------------------3--|(3)-3-3-3--3-3-3--3-3-3--5--|(5)----5--------------2--|
     E|-0--0-0-0--0-0-0--0-0-0--0-0-|-0--0-0-0--0-0-0--0-0-0-----|-------------------------|----------------------0--|
        >  . . .  . . .  . . .  . .   .  . . .  . . .  . . .  >       . . .  . . .  . . .  >
 
VoiceE|-------------------------------------------------------------------------------------------------------|
     H|-------------------------------------------------------------------------------------------------------|
     G|-------------------------------------------------------------------------------------------------------|
     D|--------------5----5--5-----7---5----4-----------------------------------5----4------------------------|
     A|--------------------------------------------7-----7-------5------7-------------------------------------|
     E|------------ Luchshe byt' dvazhdy   mert - vym, chem      is - tlet' v ple - nu.   --------------------|
      |                         |                         |                         |                         |
Gtr.2E|-------------------------|-------------------------|-------------------------|-------------------------|
     H|-------------------------|-------------------------|-------------------------|-------------------------|
     G|-------------------------|-------------------------|-------------------------|----------------------3--|
     D|(2)----------------------|----------------------5--|(5)-------------------7--|(7)----7-----4-p0--4--5--|
     A|(2)----------------------|----------------------3--|(3)-3-3-3--3-3-3--3-3-3--5--|(5)-------------------5--|
     E|(0)-0-0-0--0-0-0--0-0-0--0-0-|-0--0-0-0--0-0-0--0-0-0-----|-------------------------|----------------------3--|
           . . .  . . .  . . .  . .   .  . . .  . . .  . . .  >       . . .  . . .  . . .  >
 
VoiceE|-------------------------------------------------------------------------------------------------------|
     H|-------------------------------------------------------------------------------------------------------|
     G|--------------------------5----------------------------------------------------------------------------|
     D|----------------8-8-8------------8-----7-----5-------5--------------------8----7-----------------------|
     A|-------------------------------------------------------------------------------------------------------|
     E|-------------  Ya ubi -  val, chtob  zhit'   i     sno   -   ooooo   -   va   bit'.  ------------------|
      |                        |                          |                         |                         |
Gtr.2E|------------------------|--------------------------|-------------------------|-------------------------|
     H|------------------------|--------------------------|-------------------------|-------------10----------|
     G|-(3)--------------------|-(3)-------------------8--|-(8)------------------10-|-(10)-----------10\x--3--|
     D|-(5)--------------------|-(5)-------------------8--|-(8)------------------10-|-(10)-----------------5--|
     A|-(5)--------------------|-(5)-------------------6--|-(6)------------------8--|-(8)------------------5--|
     E|-(3)--------------------|-(3)----------------------|-------------------------|----------------------3--|
 
VoiceE|-------------------------------------------------------------------------------------------------------|
     H|-------------------------------------------------------------------------------------------------------|
     G|--------------------------5----------------------------------------------------------------------------|
     D|--------------8--8---8------------8-----7----5-------5-----5----5---------8-----7----------------------|
     A|-------------------------------------------------------------------------------------------------------|
     E|------------  Igry  muzhchin  s  voy - no - yu     trud - no   za   -   pre - tit'.   -----------------|
      |                        |                          |                         |                         |
Gtr.2E|------------------------|--------------------------|-------------------------|-------------------------|
     H|------------------------|--------------------------|-------------------------|-------------10----------|
     G|-(3)--------------------|-(3)-------------------8--|-(8)------------------10-|-(10)-----------10\x-----|
     D|-(5)--------------------|-(5)-------------------8--|-(8)------------------10-|-(10)-----------------2--|
     A|-(5)--------------------|-(5)-------------------6--|-(6)------------------8--|-(8)------------------2--|
     E|-(3)--------------------|-(3)----------------------|-------------------------|----------------------0--|
 
                    Solntze v glaza,   my  v mar - she    na                     voshod.
Gtr.2E|-------------------------|-------------------------|-------------------------|-------------------------|
     H|-------------------------|-------------------------|-------------------------|-------------------------|
     G|-------------------------|-------------------------|-------------------------|-------------------------|
     D|(2)----------------------|----------------------5--|(5)-------------------7--|(7)----------5-\4-p0--2--|
     A|(2)----------------------|----------------------3--|(3)-3-3-3--3-3-3--3-3-3--5--|(5)----5--------------2--|
     E|(0)-0-0-0--0-0-0--0-0-0--0-0-|-0--0-0-0--0-0-0--0-0-0-----|-------------------------|----------------------0--|
           . . .  . . .  . . .  . .   .  . . .  . . .  . . .  >       . . .  . . .  . . .  >
                      Vozduh plyuet - sya   krov - yu,     su - shit  cher - nyy    rot.
Gtr.2E|-------------------------|-------------------------|-------------------------|-------------------------|
     H|-------------------------|-------------------------|-------------------------|-------------------------|
     G|-------------------------|-------------------------|-------------------------|----------------------3--|
     D|(2)----------------------|----------------------5--|(5)-------------------7--|(7)----7-----4-p0--4--5--|
     A|(2)----------------------|----------------------3--|(3)-3-3-3--3-3-3--3-3-3--5--|(5)-------------------5--|
     E|(0)-0-0-0--0-0-0--0-0-0--0-0-|-0--0-0-0--0-0-0--0-0-0-----|-------------------------|----------------------3--|
           . . .  . . .  . . .  . .   .  . . .  . . .  . . .  >       . . .  . . .  . . .  >
                     Krov' - eto moy   nar - ko - tik,     dolg         -       moy flag.
Gtr.2E|-------------------------|-------------------------|-------------------------|-------------------------|
     H|-------------------------|-------------------------|-------------------------|-------------10----------|
     G|-(3)---------------------|-(3)------------------8--|-(8)------------------10-|-(10)-----------10\x--3--|
     D|-(5)---------------------|-(5)------------------8--|-(8)------------------10-|-(10)-----------------5--|
     A|-(5)---------------------|-(5)------------------6--|-(6)------------------8--|-(8)------------------5--|
     E|-(3)---------------------|-(3)---------------------|-------------------------|----------------------3--|
                     Ya kak za - lozh - nik   dol - ga,    rasstre   -   lyal svoy strah,
Gtr.2E|-------------------------|-------------------------|-------------------------|-------------------------|
     H|-------------------------|-------------------------|-------------------------|-------------------------|
     G|-(3)---------------------|-(3)------------------8--|-(8)------------------10-|-(10)--------------------|
     D|-(5)---------------------|-(5)------------------8--|-(8)------------------10-|-(10)--------------------|
     A|-(5)---------------------|-(5)------------------6--|-(6)------------------8--|-(8)---------------------|
     E|-(3)---------------------|-(3)---------------------|-------------------------|-------------------------|
      stra   -   aaaaaaaaa  -    ah...               
Gtr. E|-------------------------|-------------------------|
     H|-------------------------|-------------------------|
     G|-------------------------|-------------------------|
     D|-------------------------|-------------------------|
     A|-6--6--6--6--6--6--6--6--|-5--5--5--5--5-----------|
     E|-------------------------|-------------------------|
(2:12 - 2:34)
CHORUS:
VoiceE|-------------------------------------------------------------------------------------------------------|
     H|-------------------------------------------------------------------------------------------------------|
     G|--5--------------------------------------------------5-------------------------------------------------|
     D|------------8------7-------8---7---5---------8-------------------8-----7-------8---7---5---------7-----|
     A|-------------------------------------------------------------------------------------------------------|
     E| Boy       pro  - dol  - zha - etsya,       moy     boy        pro  - dol  - zha - etsya,       moy    |
      |                         |                         |                         |                         |
Gtr.1E|-------------------------|-------------------------|-------------------------|-------------------------|
Gtr.2H|-------------------------|-------------------------|-------------------------|-------------------------|
     G|-5-----------------------|-------------------------|-5-----------------------|-------------------------|
     D|-5-----------------------|-5-----------------------|-5--------------------5--|(5)-------5--------------|
     A|-3-----------------------|-6--------------------3--|-3--------------------6--|(6)-p3----6--------0-----|
     E|-------------------------|-------------------------|-------------------------|-------------------------|
 
VoiceE|-------------------------------------------------------------------------------------------------------|
     H|-------------------------------------------------------------------------------------------------------|
     G|-------------------------------------------------------------------------------------------------------|
     D|--8------------------------7-----------------8---7---5-------------------------------------------------|
     A|-------------------------------------------------------------------------------------------------------|
     E| boooooooooooooo    ---    ooooooooo   ---   o - o - oy !!        -------------------------------------|
      |                         |                         |                         |                         |
Gtr.1E|-------------------------|-------------------------|-------------------------|-------------------------|
Gtr.2H|-------------------------|-------------------------|-------------------------|-------------------------|
     G|-------------------------|-------------------------|-------------------------|-------------------------|
     D|-8--------------------8\-|\7--------------------7\-|\5--------------------5--|(5)----------------------|
     A|-8-----------------8-----|\7-----------------7-----|\5--------------------5--|(5)-------0--1--0--1--2--|
     E|-6--------------6--------|\5--------------5--------|\3--------------------3--|(3)-0h2h3-----------------|
 
        Boy       pro  - dol  - zha - etsya,       moy     boy        pro  - dol  - zha - etsya,       moy
Gtr.1E|-------------------------|-------------------------|-------------------------|-------------------------|
Gtr.2H|-------------------------|-------------------------|-------------------------|-------------------------|
     G|-5-----------------------|-------------------------|-5-----------------------|-------------------------|
     D|-5-----------------------|-5-----------------------|-5--------------------5--|(5)-------5--------------|
     A|-3-----------------------|-6--------------------3--|-3--------------------6--|(6)-p3----6--------0-----|
     E|-------------------------|-------------------------|-------------------------|-------------------------|
 
        boooooooooooooo    ---    ooooooooo   ---   o - o - oy !!
Gtr.1E|-------------------------|-------------------------|-------------------------|-------------------------|
Gtr.2H|-------------------------|-------------------------|-------------------------|-------------------------|
     G|-------------------------|-------------------------|-------------------3--3--|(3)----------------------|
     D|-8--------------------8\-|\7--------------------7\-|\5-----------------5--5--|(5)----------------------|
     A|-8-----------------8-----|\7-----------------7-----|\5-----------------5--5--|(5)----------------------|
     E|-6--------------6--------|\5--------------5--------|\3-----------------3--3--|(3)----------------------|

(2:34 - 2:44)

RIFF 2:

Gtr.2E|---------------------------------|---------------------------------|
     H|---------------------------------|---------------------------------|
     G|---------------------------------|---------------------------------|
     D|---------------------------------|---------------------------------|
     A|---------------------------------|---------------------------------|
     E|-1-1-1-1-1-1-1-1-4-4-4-4-4-4-4-4-|-7-7-7-7-7-7-7-7-4-4-4-4-4-4-4-4-|
                                                             au!

Gtr.2E|---------------------------------|---------------------------------|
     H|---------------------------------|---------------------------------|
     G|---------------------------------|---------------------------------|
     D|---------------------------------|---------------------6-----------|
     A|---------------------------------|---------------------6-----------|
     E|-1---1-1-1---1-1-1---1-1-1---1-1-|-1---1-1-1---1-1-1---4-----------|


Gtr.2E|---------------------------------|---------------------------------|
     H|---------------------------------|---------------------------------|
     G|---------------------------------|---------------------------------|
     D|---------------------------------|---------------------------------|
     A|---------------------------------|---------------------------------|
     E|-1-1-1-1-1-1-1-1-4-4-4-4-4-4-4-4-|-7-7-7-7-7-7-7-7-4-4-4-4-4-4-4-4-|


Gtr.2E|---------------------------------|---------------------------------|
     H|---------------------------------|---------------------------------|
     G|---------------------------------|---------------------------------|
     D|---------------------------------|-----------------------------2---|
     A|---------------------------------|-----------------------------2---|
     E|-1---1-1-1---1-1-1---1-1-1---1-1-|-1---1-1-1---1-1-1---1-1-1---0---|

(2:45 - 3:30) VERSE 2

(3:30 - 3:51) CHORUS

(3:51 - 4:02) RIFF 2

(4:02 - 4:13)

RIFF 3: (chords are implied by bass)

Gtr.1E|-----------------------------E5--|-----------------------------C5--|
     H|---------------------------------|---------------------------------|
     G|---------------------------------|---------------------------------|
     D|-------------2---5---4-------2---|(2)----------2---5---4-------2---|
     A|-----2-2-5---------------5-------|-----2-2-5---------------5-------|
     E|---------------------------------|---------------------------------|
      |                                 |                                 |
Gtr.2E|---------------------------------|---------------------------------|
     H|---------------------------------|---------------------------------|
     G|-----R---------------------------|---------------------------------|
     D|-(2)-E---------------------------|---------------------------------|
     A|-(2)-S---------------------------|---------------------------------|
     E|-(0)-T---------------------------|---------------------------------|
 
Gtr.1E|-----------------------------C5--|-----------------------------D5--|
     H|---------------------------------|---------------------------------|
     G|---------------------------------|---------------------------------|
     D|-(2)---------2---5---4-------2---|(2)----------2---5---4---2-------|
     A|-----2-2-5---------------5-------|-----2-2-5-------------------5---|
     E|---------------------------------|---------------------------------|
 
Gtr.1E|-----------------------------D5--|-----------------------------E5--|
     H|---------------------------------|---------------------------------|
     G|---------------------------------|---------------------------------|
     D|-------------2---5---4---2-------|-------------2---5---4-------2---|
     A|-(5)-2-2-5-------------------5---|(5)--2-2-5---------------5-------|
     E|---------------------------------|---------------------------------|
 
Gtr.1E|-----------------------------E5--|-----------------------------E5--|
     H|---------------------------------|---------------------------------|
     G|---------------------------------|---------------------------------|
     D|-(2)---------2---5---4-------2---|(2)----------2---5---4-------2---|
     A|-----2-2-5---------------5-------|-----2-2-5---------------5-------|
     E|---------------------------------|---------------------------------|

(4:13 - 4:24)

RIFF 3': (another guitar joins; chords are implied by bass)

Gtr.1E|-----------------------------E5--|-----------------------------C5--|
     H|---------------------------------|---------------------------------|
     G|---------------------------------|---------------------------------|
     D|-(2)---------2---5---4-------2---|(2)----------2---5---4-------2---|
     A|-----2-2-5---------------5-------|-----2-2-5---------------5-------|
     E|---------------------------------|---------------------------------|
      |                                 |                                 |
Gtr.2E|---------------------------------|---------------------------------|
     H|---------------------------------|---------------------------------|
     G|---------------sl.---------------|--------------sl.----------------|
     D|---------5---7--/9---7-------5---|(5)------5---7--/9---7-------5---|
     A|-----7-------------------9-------|-----7-------------------9-------|
     E|---------------------------------|---------------------------------|
 
Gtr.1E|-----------------------------C5--|-----------------------------D5--|
     H|---------------------------------|---------------------------------|
     G|---------------------------------|---------------------------------|
     D|-(2)---------2---5---4-------2---|(2)----------2---5---4---2-------|
     A|-----2-2-5---------------5-------|-----2-2-5-------------------5---|
     E|---------------------------------|---------------------------------|
      |                                 |                                 |
Gtr.2E|---------------------------------|---------------------------------|
     H|---------------------------------|---------------------------------|
     G|---------------sl.---------------|--------------sl.----------------|
     D|-(5)-----5---7--/9---7-------5---|(5)------5---7--/9---7---5-------|
     A|-----7-------------------9-------|-----7-----------------------9---|
     E|---------------------------------|---------------------------------|
 
Gtr.1E|-----------------------------D5--|-----------------------------E5--|
     H|---------------------------------|---------------------------------|
     G|---------------------------------|---------------------------------|
     D|-------------2---5---4---2-------|-------------2---5---4-------2---|
     A|-(5)-2-2-5-------------------5---|(5)--2-2-5---------------5-------|
     E|---------------------------------|---------------------------------|
      |                                 |                                 |
Gtr.2E|---------------------------------|---------------------------------|
     H|---------------------------------|---------------------------------|
     G|---------------sl.---------------|--------------sl.----------------|
     D|---------5---7--/9---7---5-------|---------5---7--/9---7-------5---|
     A|-(9)-7-----------------------9---|(9)--7-------------------9-------|
     E|---------------------------------|---------------------------------|
 
Gtr.1E|-----------------------------E5--|-----------------------------F#5-|
     H|---------------------------------|---------------------------------|
     G|---------------------------------|---------------------------------|
     D|-(2)---------2---5---4-------2---|(2)----------2---5---4-----------|
     A|-----2-2-5---------------5-------|-----2-2-5---------------5-------|
     E|---------------------------------|---------------------------------|
      |                                 |                                 |
Gtr.2E|---------------------------------|---------------------------------|
     H|---------------------------------|---------------------------------|
     G|---------------sl.---------------|--------------sl.------------11--|
     D|-(5)-----5---7--/9---7-------5---|(5)------5---7--/9---7-------11--|
     A|-----7-------------------9-------|-----7-------------------9---9---|
     E|---------------------------------|---------------------------------|

(4:24 - 5:08)

SOLO:
                                                                                  T
Gtr.1E|--14bend16.........................release14-----|-14~~~~~~~~~-------14----21p17p14----------------|
     H|----------- hold bend ---------------------------|----------------14----14----------14h15p14h15p14\|
     G|-------------------------------------------------|-------------------------------------------------|
     D|-------------------------------------------------|-------------------------------------------------|
     A|-------------------------------------------------|-------------------------------------------------|
     E|-------------------------------------------------|-------------------------------------------------|
      |                                                 |                                                 |
Gtr.2E|-------------------------------------------------|-------------------------------------------------|
     H|-------------------------------------------------|-------------------------------------------------|
     G|-(11)--------------------------------------------|-(11)--------------------------------------7-----|
     D|-(11)--------------------------------------------|-(11)--------------------------------------7-----|
     A|-(9)---------------------------------------------|-(9)---------------------------------------5-----|
     E|-------------------------------------------------|-------------------------------------------------|
 
Gtr.1E|----------------------------------------16-16-19-|-19p17p16----------------------------------------|
     H|-(14)\----------------------14h15-15/17----------|----------17~~~~~~~~~~~~~~~~~~~~~----------------|
     G|--- slide ---------13h14h16----------------------|-------------------------------------------------|
     D|--- down ----14h16-------------------------------|-------------------------------------------------|
     A|-------------------------------------------------|-------------------------------------------------|
     E|-------------------------------------------------|-------------------------------------------------|
      |                                                 |                                                 |
Gtr.2E|-------------------------------------------------|-------------------------------------------------|
     H|-------------------------------------------------|-------------------------------------------------|
     G|-(7)---------------------------------------9-----|-(9)---------------------------------------11----|
     D|-(7)---------------------------------------9-----|-(9)---------------------------------------11----|
     A|-(5)---------------------------------------7-----|-(7)---------------------------------------9-----|
     E|-------------------------------------------------|-------------------------------------------------|
 
Gtr.1E|--21bend23---------------------------------------|--21~~~~~~~~~~~~~~~~~~~--------------------------|
     H|-------------------------------------------------|-----------------------------------------(21)sl.\|
     G|-------------------------------------------------|------------------------------------------ slide |
     D|-------------------------------------------------|------------------------------------------- down |
     A|-------------------------------------------------|-------------------------------------------------|
     E|-------------------------------------------------|-------------------------------------------------|
      |                                                 |                                                 |
Gtr.2E|-------------------------------------------------|-------------------------------------------------|
     H|-------------------------------------------------|-------------------------------------------------|
     G|-(11)--------------------------------------------|-(11)--------------------------------------7-----|
     D|-(11)--------------------------------------------|-(11)--------------------------------------7-----|
     A|-(9)---------------------------------------------|-(9)---9--9--9-----9--9--9-----9--9--9-----5-----|
     E|-------------------------------------------------|-------------------------------------------------|
 
Gtr.1E|-------------------------------------------------|-------------------------------------------------|
     H|-\15---14p12-------------------------------------|-------------------------------------------------|
     G|-------------14p13p11----------------------------|----------------------------------------14----14-|
     D|----------------------14-12p11----11~~~~~~~~~~~~~|-(11)~~~~~~~~~~~~~~~~~~~~~~~~~-------------------|
     A|-------------------------------------------------|-------------------------------------------------|
     E|-------------------------------------------------|-------------------------------------------------|
      |                                                 |                                                 |
Gtr.2E|-------------------------------------------------|-------------------------------------------------|
     H|-------------------------------------------------|-------------------------------------------------|
     G|-(7)---------------------------------------9-----|-(9)---------------------------------------------|
     D|-(7)---------------------------------------9-----|-(9)---------------------------------------7-----|
     A|-(5)---------------------------------------7-----|-(7)---------------------------------------7-----|
     E|-------------------------------------------------|-------------------------------------------5-----|
 
Gtr.1E|-------------------------------------------------|-------------------------------------------------|
     H|-------------------------------------------------|-------------------------------------------------|
     G|-17p14-14-14-16p14-14-14-17p14-14-14-16p14-14-14-|-17p14-14-14-16p14-14-14-17p14-14-14-16p14-14/17-|
     D|-------------------------------------------------|-------------------------------------------------|
     A|-------------------------------------------------|-------------------------------------------------|
     E|-------------------------------------------------|-------------------------------------------------|
      |                                                 |                                                 |
Gtr.2E|-------------------------------------------------|-------------------------------------------------|
     H|-------------------------------------------------|-------------------------------------------------|
     G|-------------------------------------------------|-------------------------------------------------|
     D|-(7)---------------------------------------------|-(7)---------------------------------------3-----|
     A|-(7)---------------------------------------------|-(7)---------------------------------------3-----|
     E|-(5)---------------------------------------------|-(5)---------------------------------------1-----|
 
Gtr.1E|-------------------------------------------------|-------------------------------------------17~~~~|
     H|-------------------------------------------------|-------------------------------15h16h17----------|
     G|-21p17-17-17-19p17-17-17-21p17-17-17-19p17-17\16-|-19p16-16-16-17p16-16-15h16h17-------------------|
     D|-------------------------------------------------|-------------------------------------------------|
     A|-------------------------------------------------|-------------------------------------------------|
     E|-------------------------------------------------|-------------------------------------------------|
      |                                                 |                                                 |
Gtr.2E|-------------------------------------------------|-------------------------------------------------|
     H|-------------------------------------------------|-------------------------------------------------|
     G|-------------------------------------------------|-------------------------------------------------|
     D|-(3)---------------------------------------5-----|-(5)---------------------------------------7-----|
     A|-(3)---------------------------------------5-----|-(5)---------------------------------------7-----|
     E|-(1)---------------------------------------3-----|-(3)---------------------------------------5-----|
 
Gtr.1E|-(17)~~~~~~~~~~~~~~~~~~~~~~~~~~~~----------------|-------------17---/20----22bendto24--------------|
     H|-------------------------------------------------|-------------------------------------------------|
     G|-------------------------------------------------|-------------------------------------------------|
     D|-------------------------------------------------|-------------------------------------------------|
     A|-------------------------------------------------|-------------------------------------------------|
     E|-------------------------------------------------|-------------------------------------------------|
      |                                                 |                                                 |
Gtr.2E|-------------------------------------------------|-------------------------------------------------|
     H|-------------------------------------------------|-------------------------------------------------|
     G|-------------------------------------------------|-------------------------------------------------|
     D|-(7)---------------------------------------------|-(7)---------------------------------------3-----|
     A|-(7)---------------------------------------------|-(7)---------------------------------------3-----|
     E|-(5)---------------------------------------------|-(5)---5--5--5-----5--5--5-----5--5--5-----1-----|
 
Gtr.1E|-------------------------------------------------|-------------------------------------------------|
     H|-------8--8--------------------------------------|-------------------------------------------------|
     G|-9--9--------9-p-8-p-7-\-5-----------------------|-5-----------------------------------------------|
     D|-----------------------------7-p-6-p-5-------7---|-----7---5---7---5-------------------------------|
     A|-------------------------------------------------|---------------------7---5---7---5-p-0-----------|
     E|-------------------------------------------------|-------------------------------------------------|
      |                                                 |                                                 |
Gtr.2E|-------------------------------------------------|-------------------------------------------------|
     H|-------------------------------------------------|-------------------------------------------------|
     G|-------------------------------------------------|-------------------------------------------9-----|
     D|-(3)---------------------------------------5-----|-(5)---------------------------------------9-----|
     A|-(3)---------------------------------------5-----|-(5)---------------------------------------7-----|
     E|-(1)---------------------------------------3-----|-(3)---------------------------------------------|
 
Gtr.1E|-------12----14~~~~~~~~~~~~~~~~~~~~~~~~~~~~~~~~~~|(14)~~~~~~~~~~~~~~~~~~~~~~~~---------------------|
     H|-------------------------------------------------|-------------------------------------------------|
     G|-------------------------------------------------|-------------------------------------------------|
     D|-------------------------------------------------|-------------------------------------------------|
     A|-------------------------------------------------|-------------------------------------------------|
     E|-------------------------------------------------|-------------------------------------------------|
      |                                                 |                                                 |
Gtr.2E|-------------------------------------------------|-------------------------------------------------|
     H|-------------------------------------------------|-------------------------------------------------|
     G|-(9)---------------------------------------------|-(9)---------------------------------------5-----|
     D|-(9)---------------------------------------------|-(9)---------------------------------------5-----|
     A|-(7)---------------------------------------------|-(7)---------------------------------------3-----|
     E|-------------------------------------------------|-------------------------------------------------|
 
Gtr.1E|-/17---19~~~~~~~~~~~~~~~~~--17p15\---------------|-------------17h19-20bend22...release20----19~~~~|
     H|-------------------------------------------------|-17-17h19-20-------------------------------------|
     G|------------------------------------------/17h19-|-------------------------------------------------|
     D|-------------------------------------------------|-------------------------------------------------|
     A|-------------------------------------------------|-------------------------------------------------|
     E|-------------------------------------------------|-------------------------------------------------|
      |                                                 |                                                 |
Gtr.2E|-------------------------------------------------|-------------------------------------------------|
     H|-------------------------------------------------|-------------------------------------------------|
     G|-(5)---------------------------------------7-----|-(7)---------------------------------------9-----|
     D|-(5)---------------------------------------7-----|-(7)---------------------------------------9-----|
     A|-(3)---------------------------------------5-----|-(5)---------------------------------------7-----|
     E|-------------------------------------------------|-------------------------------------------------|
 
Gtr.1E|-(19)~~~~~~~~\-----------------17h19h20-19p17h19p|p17h19p17\15h17h19-14h15h18p17-12h14h15p14-11----|
     H|----------- slide -------17h19-------------------|-------------------------------------------------|
     G|----------- down --------------------------------|-------------------------------------------------|
     D|-------------------------------------------------|-------------------------------------------------|
     A|-------------------------------------------------|-------------------------------------------------|
     E|-------------------------------------------------|-------------------------------------------------|
      |                                                 |                                                 |
Gtr.2E|-------------------------------------------------|-------------------------------------------------|
     H|-------------------------------------------------|-------------------------------------------------|
     G|-(9)---------------------------------------------|-(9)---------------------------------------5-----|
     D|-(9)---------------------------------------------|-(9)---------------------------------------5-----|
     A|-(7)---------------------------------------------|-(7)---7--7--7-----7--7--7-----7--7--7-----3-----|
     E|-------------------------------------------------|-------------------------------------------------|
 
Gtr.1E|-14p12p11h12------------/20----19p17-------------|------------------------------------------N.H.---|
     H|----------------------sl-------------20p19p17----|-------------------------------------------------|
     G|----------------------------------------------19p|p17p16------------------------------------<5>----|
     D|-------------------------------------------------|-------19p17p16----------------------------------|
     A|-------------------------------------------------|----------------17-\-- slide down ---------------|
     E|-------------------------------------------------|-------------------------------------------------|
      |                                                 |                                                 |
Gtr.2E|-------------------------------------------------|-------------------------------------------------|
     H|-------------------------------------------------|-------------------------------------------------|
     G|-(5)---------------------------------------7-----|-(7)---------------------------------------------|
     D|-(5)---------------------------------------7-----|-(7)---------------------------------------5-----|
     A|-(3)---------------------------------------5-----|-(5)---------------------------------------5-----|
     E|-------------------------------------------------|-------------------------------------------3-----|
 
Gtr.1E|-------------------------------------------------|-------------------------------------------------|
     H|-------------------------------------------------|-------------------------------------------------|
     G|-(<5>)-------------------------------3-----5-----|-/7----------3-----5----/7-----------3-----5-----|
     D|-------------------------------5--------------sl-|-------5-------------sl--------5--------------sl-|
     A|-------------------------------------------------|-------------------------------------------------|
     E|-------------------------------------------------|-------------------------------------------------|
      |                                                 |                                                 |
Gtr.2E|-------------------------------------------------|-------------------------------------------------|
     H|-------------------------------------------------|-------------------------------------------------|
     G|-------------------------------------------------|-------------------------------------------8-----|
     D|-(5)---------------------------------------------|-(5)---------------------------------------8-----|
     A|-(5)---------------------------------------------|-(5)---------------------------------------6-----|
     E|-(3)---------------------------------------------|-(3)---------------------------------------------|
 
Gtr.1E|-------------------------------------------------|-------------------------------------------------|
     H|-------------6-----4-----------------------------|-------------------------------------------------|
     G|-/7----5-----------------5-p-4-p-3-p-0-h3--5-----|-------------------------3-----2-----------------|
     D|-------------------------------------------------|-3-----------------------------------3-----5~~~~-|
     A|-------------------------------------------------|-------5-----------------------------------------|
     E|-------------------------------------------------|-------------------------------------------------|
      |                                                 |                                                 |
Gtr.2E|-------------------------------------------------|-------------------------------------------------|
     H|-------------------------------------------------|-------------------------------------------------|
     G|-(8)---------------------------------------10----|-(10)--------------------------------------------|
     D|-(8)---------------------------------------10----|-(10)--------------------------------------5-----|
     A|-(6)---------------------------------------8-----|-(8)---------------------------------------5-----|
     E|-------------------------------------------------|-------------------------------------------3-----|
 
Gtr.1E|-------------------------------------------------|-------------------------------------------------|
     H|-------------------------------------------------|-------------------------------------------------|
     G|-------------------------------------------------|-------------------------------------------------|
     D|-(5)~~~~~----------------------------3-----------|-------------------------------------------------|
     A|-------------------------------5-----------5-----|-3-----------------------------------------3-----|
     E|-------------------------------------------------|-------6-----5-----6-----6-----3-----3-----------|
      |                                                 |                                                 |
Gtr.2E|-------------------------------------------------|-------------------------------------------------|
     H|-------------------------------------------------|-------------------------------------------------|
     G|-------------------------------------------------|-------------------------------------------8-----|
     D|-(5)---------------------------------------------|-(5)---------------------------------------8-----|
     A|-(5)---------------------------------------------|-(5)---------------------------------------6-----|
     E|-(3)---------------------------------------------|-(3)---------------------------------------------|
 
Gtr.1E|-------------------------------------------------|-------------------------------------------8-----|
     H|-------------------------------------------------|--------------------------8----10----11----------|
     G|--------------------------------------------5----|--5-----7-----8-----10---------------------------|
     D|--------------------------5-----7-----8----------|-------------------------------------------------|
     A|--3-----5-----6-----8----------------------------|-------------------------------------------------|
     E|-------------------------------------------------|-------------------------------------------------|
      |                                                 |                                                 |
Gtr.2E|-------------------------------------------------|-------------------------------------------------|
     H|-------------------------------------------------|-------------------------------------------------|
     G|-(8)----------------------------------------10---|-(10)--------------------------------------------|
     D|-(8)----------------------------------------10---|-(10)--------------------------------------------|
     A|-(6)----------------------------------------8----|-(8)---------------------------------------------|
     E|-------------------------------------------------|-------------------------------------------------|
 
Gtr.1E|---10-h11-p10-h11-p10-h11-p10-h11-10-h11-10-h11--|-p10-h11-p10-h11-p10-h11-p10~~~~~~~~-------------|
     H|--------------  trill  --------------------------|-------------------------------------------------|
     G|-------------------------------------------------|-------------------------------------------------|
     D|-------------------------------------------------|-------------------------------------------------|
     A|-------------------------------------------------|-------------------------------------------------|
     E|-------------------------------------------------|-------------------------------------------------|

(5:08 - 5:30) CHORUS

(5:30 - 5:40) RIFF 2

(5:40 - 6:02) RIFF 1

 






                       


Copyright © Музыкальный Портал на Куличках 1999-2007      music@kulichki.com


    Stolica.ru    
Реклама в Интернет