Stolica.ru Реклама на Куличках     

Аккорды песен:
A B C D E F G H I J K L M N O P Q R S T U V W X Y Z
АБВГДЕЖЗИКЛМНОПРСТУФХЦЧШЩЭЮЯ





Тексты песен :     A B C D E F G H I J K L M N O P Q R S T U V W X Y Z #

ПОЛНЫЙ СПИСОК ПЕСЕН ГРУППЫ




-->



АРИЯ   

Искушение
---------
tabbed by Vladimir Gelfand ("Little Prince")


Tempo: slow (73 bpm)

(0:01 - 0:27)

INTRO:

RIFF 1: (note durations shown above the notes: e=1/8; ts=3/16; h=1/2)

        e   ts    ts    ts    ts    e     e   ts    ts    ts    ts    e
Gtr.1E|---------------------------------|---------------------------------|
     H|---------------------------------|---------------------------------|
     G|-R---7---------------------------|-R---7---------------------------|
     D|-E--------10-----9-----7-----9---|-E--------10-----9-----7-----9---|
     A|-S-------------------------------|-S-------------------------------|
     E|-T-------------------------------|-T-------------------------------|
      |                                 |                                 |
Bass G|---------------------------------|---------------------------------|
     D|---------------------------------|---------------------------------|
     A|-5-------------------------------|-8-------------------------------|
     E|---------------------------------|---------------------------------|
 
        e   ts    ts    ts    ts    e     ts    ts    e   h
Gtr.1E|---------------------------------|---------------------------------|
     H|---------------------------------|---------------------------------|
     G|-R---9-----7---------------------|-7-------------------------------|
     D|-E--------------10-----9----10---|------10-----9-------------------|
     A|-S-------------------------------|-----------------7~~~~~~~~~~-----|
     E|-T-------------------------------|---------------------------------|
      |                                 |                                 |
Bass G|-R-------------------------------|---------------------------------|
     D|-E-------------------------------|---------------------------------|
     A|-S-------------------------------|---------------------------------|
     E|-T---5---------------------------|-5-------------------------------|
 
Gtr.1E|---------------------------------|---------------------------------|
     H|---------------------------------|---------------------------------|
     G|-----7---------------------------|-----7---------------------------|
     D|----------10-----9-----7-----9---|----------10-----9-----7-----9---|
     A|---------------------------------|---------------------------------|
     E|---------------------------------|---------------------------------|
      |                                 |                                 |
Bass G|---------------------------------|---------------------------------|
     D|---------------------------------|---------------------------------|
     A|-5-------------------------------|-8-------------------------------|
     E|---------------------------------|---------------------------------|
 
Gtr.1E|---------------------------------|---------------------------------|
     H|---------------------------------|---------------------------------|
     G|-R---9-----7---------------------|-9-------------------------------|
     D|-E--------------10-----9----10---|---------------------------------|
     A|-S-------------------------------|---------------------------------|
     E|-T-------------------------------|---------------------------------|
      |                                 |                                 |
Bass G|-R-------------------------------|---------------------------------|
     D|-E-------------------------------|---------------------------------|
     A|-S---7---------------------------|-7-------------------------------|
     E|-T-------------------------------|---------------------------------|

Tempo doubles (147 bpm)

(0:27 - 1:03)

VERSE 1:

VoiceE|--------------------------------------------------------------------------------------------------------|
     H|-5---------5----3---------------------------------------------------------------------------------------|
     G|----------------------------5------5-----4------------2--2-----2--2-----4---2----1----------------------|
     D|-------------------------2-----------------------2------------------------------------2-------------2---|
     A|--------------------------------------------------------------------------------------------------------|
     E|kroy     gla - za,      kosnis'   me - nya,     ty   pahnesh' soblaz - nom  i  myo - dom.           Is- |
      |                          |                         |                         |                         |
Gtr.1E|--------------------------|-------------------------|-------------------------|-------------------------|
     H|--------------------------|-------------------------|-------------------------|-------------------------|
     G|--------------------------|-------------------------|-------------------------|-------------------------|
     D|--------------------------|-------------------------|-------------------------|-2--------2--------------|
     A|--0--0--0--0--0--0--0--0--|-2--2--2--2--2--2--2--2--|-3--3--3--3--3--3--3--3--|-3-p2-----3-p2-----------|
     E|--.--.--.--.--.--.--.--.--|-.--.--.--.--.--.--.--.--|-.--.--.--.--.--.--.--.--|-------0--------0--0--0--|
      |                          |                         |                         |       .        .  .  .  |
Gtr.2E|-----------0--------------|----------0--------------|----------0--------------|----------0--------------|
     H|-----1--------------------|----3--------------------|----1--------------------|----3--------------------|
     G|--2-----------------------|-4-----------------------|-2-----------------------|-4-----------------------|
     D|--------------------------|-------------------------|-------------------------|-------------------------|
     A|--------------------------|-------------------------|-------------------------|-------------------------|
     E|--------------------------|-------------------------|-------------------------|-------------------------|
 
VoiceE|--------------------------------------------------------------------------------------------------------|
     H|---------------------------3-----5-------6-------3----5-6------3-----------5----------------------------|
     G|---------------------2----------------------------------------------------------5--------4--------------|
     D|--0-----2-------3------------------------------------------------------------------------------------2--|
     A|--------------------------------------------------------------------------------------------------------|
     E|chez - net   gryaz'  os - kol - kov   dnya,      u - darit  v gong       pri - ro   -   da.        Kra- |
      |                          |                         |                         |                         |
Gtr.1E|--------------------------|-------------------------|-------------------------|-------------------------|
     H|--------------------------|-------------------------|-------------------------|-------------------------|
     G|--------------------------|-------------------------|-------------------------|-------------------------|
     D|--------------------------|-------------------------|-9--------7--------------|-5--------4--------------|
     A|--5--5--5--5--5--5--5--5--|-8--8--8--8--8--8--8--8--|-7--------5--------------|-3--------2--------------|
     E|--.--.--.--.--.--.--.--.--|-.--.--.--.--.--.--.--.--|----0--0-----0--0--0--0--|----0--0-----0--0--0--0--|
      |                          |                         | >  .  .  >  .  .  .  .  | >  .  .  >  .  .  .  .  |
Gtr.2E|-----------1--------------|----------1--------------|-------------------------|-------------------------|
     H|-----3--------------------|----1--------------------|-------------------------|-------------------------|
     G|--2-----------------------|-2-----------------------|-------------------------|-------------------------|
     D|--------------------------|-------------------------|-------------------------|-------------------------|
     A|--------------------------|-------------------------|-------------------------|-------------------------|
     E|--------------------------|-------------------------|-------------------------|-------------------------|
 
VoiceE|--------------------------------------------------------------------------------------------------------|
     H|---5------5---3-----------------------------------------------------------------------------------------|
     G|----------------------------5-----5-----4-------------2--2-2------2-----4-----2--1----------------------|
     D|----------------------2-------------------------2-------------------------------------2--------------2--|
     A|--------------------------------------------------------------------------------------------------------|
     E| dyot - sya  noch',  kak chyor - nyy  zver',   vib - riruyet  v  lun - nom  sveche - nii.         Skre- |
      |                          |                         |                         |                         |
Gtr.1E|--------------------------|-------------------------|-------------------------|-------------------------|
     H|--------------------------|-------------------------|-------------------------|-------------------------|
     G|--------------------------|-------------------------|-------------------------|-------------------------|
     D|--------------------------|-------------------------|-------------------------|-2--------2--------------|
     A|--0--0--0--0--0--0--0--0--|-2--2--2--2--2--2--2--2--|-3--3--3--3--3--3--3--3--|-3-p2-----3-p2-----------|
     E|--.--.--.--.--.--.--.--.--|-.--.--.--.--.--.--.--.--|-.--.--.--.--.--.--.--.--|-------0--------0--0--0--|
      |                          |                         |                         |       .        .  .  .  |
Gtr.2E|-----------0--------------|----------0--------------|----------0--------------|----------0--------------|
     H|-----1--------------------|----3--------------------|----1--------------------|----3--------------------|
     G|--2-----------------------|-4-----------------------|-2-----------------------|-4-----------------------|
     D|--------------------------|-------------------------|-------------------------|-------------------------|
     A|--------------------------|-------------------------|-------------------------|-------------------------|
     E|--------------------------|-------------------------|-------------------------|-------------------------|
 
VoiceE|--------------------------------------------------------------------------------------------------------|
     H|----------------------------3-------5--6--------3-----5-----6--3----------5-----------------------------|
     G|----------------------2---------------------------------------------------------5--------4--------------|
     D|--0---2-------3-----------------------------------------------------------------------------------------|
     A|--------------------------------------------------------------------------------------------------------|
     E|byotsya  v  dver',  stu - chit   v  okno,       ey   ho  - lodno          od - no   -    oy.        ----|
      |                          |                         |                         |                         |
Gtr.1E|--------------------------|-------------------------|-------------------------|-------------------------|
     H|--------------------------|-------------------------|-------------------------|-------------------------|
     G|--------------------------|-------------------------|-------------------------|-------------------------|
     D|--------------------------|-------------------------|-9--------7--------9-----|-5--------4--------------|
     A|--5--5--5--5--5--5--5--5--|-8--8--8--8--8--8--8--8--|-7--------5--------7-----|-3--------2--------------|
     E|--.--.--.--.--.--.--.--.--|-.--.--.--.--.--.--.--.--|----0--0-----0--0--0--0--|----0--0-----0--0--0--0--|
      |                          |                         | >  .  .  >  .  .  >  .  | >  .  .  >  .  .  .  .  |
Gtr.2E|-----------1--------------|----------1--------------|-------------------------|-------------------------|
     H|-----3--------------------|----1--------------------|-------------------------|-------------------------|
     G|--2-----------------------|-2-----------------------|-------------------------|-------------------------|
     D|--------------------------|-------------------------|-------------------------|-------------------------|
     A|--------------------------|-------------------------|-------------------------|-------------------------|
     E|--------------------------|-------------------------|-------------------------|-------------------------|
 
VoiceE|----------------------------------------------------|
     H|--3-----5--------------3----------------------------|
     G|-----------5----------------4--------4-----------2--|
     D|----------------------------------------------------|
     A|----------------------------------------------------|
     E| Ho -  lodno          od - no   -    oy.        Las-|
      |                          |                         |
Gtr.1E|--------------------------|-------------------------|
  +  H|--------------------------|-------------------------|
Gtr.2G|--7--------5--------------|-4--------2--------------|
     D|--9--------7--------------|-5--------4--------------|
     A|--7--------5--------------|-3--------2--------------|
     E|-----0--0--------0--0--0--|----0--0--------0--0--0--|
 
VoiceE|-------------------------------------------------------------------------------------------------------|
     H|-------------------------------------------------------------------------------5--------5--------------|
     G|--5---5---4------------2--5----5-----4---------------5--5---5-5---------7--5---------------------------|
     D|-------------------------------------------------------------------------------------------------------|
     A|-------------------------------------------------------------------------------------------------------|
     E| ka - ya noch',       kosnis' me - nya,              imya  tebe    -    iskushen   -   'e.    ---------|
      |                         |                         |                         |                         |
Gtr.2E|-------------------------|-------------------------|-------------------------|-------------------------|
     H|---------/6-----5--3-----|---------/6-----5--3-----|---------/6-----5--3-----|-5-----------------------|
     G|----------------------5--|----------------------5--|----------------------5--|-------------------------|
     D|-------------------------|-3-----------------------|-3-----------------------|-------------------------|
     A|-------------------------|-------------------------|-------------------------|-------------------------|
     E|-------------------------|-------------------------|-------------------------|-------------------------|
      |                         |                         |                         |                         |
Bass G|-------------------------|-------------------------|-------------------------|------/9-----7-----------|
     D|-------------------------|-------------------------|-------------------------|----------------9--6-----|
     A|-8--------------------7--|-5-----------------5--7--|-8-----------------------|-7--------------------7--|
     E|-------------------------|-------------------------|-------------------------|-------------------------|

(1:03 - 1:26)

CHORUS:

VoiceE|---------------------------8---8---8----8-----7---5-----------------------------------------------------|
     H|--6----------------------------------------------------5------------------------------------------------|
     G|-----------7--------------------------------------------------------------------------------------------|
     D|--------------------------------------------------------------------------------------------------------|
     A|--------------------------------------------------------------------------------------------------------|
     E| Day     mne             bol'she chem pros - to lyu - bov'.                  ---------------------------|
      |                          |                         |                         |                         |
Gtr.1E|--------------------------|-------------------------|-------------------------|-------------------------|
  +  H|--------------------------|-------------------------|-------------------------|-------------------------|
bass G|-----------7--------------|----------10-------------|-------------------------|-------------------------|
     D|-----------7--------------|----------10-------------|-7--------7--------------|-7-----------------------|
     A|--5--5--5--5--------------|-8--8--8--8--------------|-7--------7--------------|-7-----------------------|
     E|--------------------------|-------------------------|-5--------5-----5--8--7--|-5-----------------------|
 
VoiceE|---------------------------8---8---8----8--------7---5-7----7------7----8----7--------------------5---3-|
     H|--6-----------------------------------------------------------------------------------------------------|
     G|-----------7--------------------------------------------------------------------------------------------|
     D|--------------------------------------------------------------------------------------------------------|
     A|--------------------------------------------------------------------------------------------------------|
     E| Day     mne             bol'she chem strast',chto proho - dit   slov - no  bol'.                Ya sgo-|
      |                          |                         |                         |                         |
Gtr.1E|--------------------------|-------------------------|-------------------------|-------------------------|
     H|--------------------------|-------------------------|-------------------------|-------------------------|
     G|-----------7--------------|----------10-------------|-9--------9-----9--------|-------------------------|
     D|-----------7--------------|----------10-------------|-9--------9-----9--------|-------------------------|
     A|--5--5--5--5--------------|-8--8--8--8--------------|-7--------7-----7--------|-------------------------|
     E|--------------------------|-------------------------|-------------------------|-------------------------|
      |                          |                         |                         |                         |
Bass G|--------------------------|-------------------------|-------------------------|/9--7--------------------|
     D|--------------------------|-------------------------|-------------------------|------10--9--10--9--7----|
     A|--------------------------|-------------------------|-------------------------|----------------------10-|
     E|--------------------------|-------------------------|-------------------------|-------------------------|
 
VoiceE|---5------3-----1--------5--7------5----3-------3-----5------------------------------------------5---5--|
     H|--------------------------------------------------------------------------------------------------------|
     G|--------------------------------------------------------------------------------------------------------|
     D|--------------------------------------------------------------------------------------------------------|
     A|--------------------------------------------------------------------------------------------------------|
     E| ryu   v  og - ne,     sgoryu  v  te - be,     pus - kay!                                       Ya  mo- |
      |                          |                         |                         |                         |
Gtr.1E|--------------------------|-------------------------|-------------------------|-------------------------|
     H|--------------------------|-------------------------|-------------------------|-------------------------|
     G|--2-----------------------|-4-----------------------|-------------------------|-------------------------|
     D|--3-----------------------|-5-----------------------|-7-----------------------|-------------------------|
     A|--3-----------------------|-5-----------------------|-7-----------------------|-------------------------|
     E|--1-----------------------|-3-----------------------|-5-----------------------|-------------------------|
      |                          |                         |                         |                         |
Gtr.2E|--------------------------|-------------------------|-------------12-10-------|-------------------------|
     H|--------------------------|-------------------------|-------------------13-12-|-13-12-10----10----------|
     G|--------------------------|-------------------------|-------------------------|----------12----12-10-9--|
     D|--------------------------|-------------------------|-------------------------|-------------------------|
     A|--------------------------|-------------------------|-------------------------|-------------------------|
     E|--------------------------|-------------------------|-------------------------|-------------------------|
      |                          |                         |                         |                         |
Bass G|--------------------------|-------------------------|-------------------------|-------------------------|
     D|--------------------------|-------------------------|-7-----------------7--9--|-10--9--7----7-----------|
     A|--8-----------------------|-10----------------------|-------------------------|----------10---10--8--7--|
     E|--------------------------|-------------------------|-------------------------|-------------------------|
 
                                  1.----------------------->
VoiceE|--5-----3------1------------------------------------|
     H|---------------------3------5-----------------------|
     G|----------------------------------------------------|
     D|----------------------------------------------------|
     A|----------------------------------------------------|
     E| gu   stat'   pep - lom,   no...   -----------------|
      |                          |                         |
Gtr.1E|--------------------------|-------------------------|
     H|--------------------------|-----R-------------------|
     G|--2-----------------------|--4--E-------------------|
     D|--3-----------------------|--4--S-------------------|
     A|--3-----------------------|--2--T-------------------|
     E|--1-----------------------|-------------------------|
      |                          |                         |
Gtr.2E|--------------------------|-------------------------|
     H|--------------------------|-----R-------------------|
     G|--------------------------|-----E-------------------|
     D|--12----------------------|-----S-------------------|
     A|--------------------------|-----T-------------------|
     E|--------------------------|-------------------------|

(1:26 - 2:02) VERSE 2

(2:02 - 2:25) CHORUS, with

alternative ending:
                                 2.------------------------>
VoiceE|--5-----3------1--------------------4---------------|
     H|---------------------3------5-------------3-----3---|
     G|----------------------------------------------------|
     D|----------------------------------------------------|
     A|----------------------------------------------------|
     E|-gu   stat'   pep - lom,   lish'   poz - nav  tvoy -|
      |                          |                         |
Gtr.1E|--------------------------|-------------------------|
     H|--------------------------|-----R-------------------|
     G|--2-----------------------|--4--E-------------------|
     D|--3-----------------------|--4--S-------------------|
     A|--3-----------------------|--2--T-------------------|
     E|--1-----------------------|-------------------------|

(2:25 - 2:38)

INTERLUDE:

VoiceE|--------------------------------------------------------------------------------------------------------|
     H|---3-------------------------3------------------------3-------------------------------------------------|
     G|-----------5---2---------------------5---2--------------------5---2-------------------------------------|
     D|--------------------------------------------------------------------------------------------------------|
     A|--------------------------------------------------------------------------------------------------------|
     E|- ra   -   a - ay,          ra   -   a - ay,         ra   -   a - ay......                        ------|
      |                          |                         |                         |                         |
Gtr.2E|--------------------------|-------------------------|-------------------------|-------------------------|
     H|-/15----13----------------|-/15---13----------------|-/15---13----------15----|-17~~~~~~~---------------|
     G|-----------14-------------|----------14-------------|----------14-------------|-------------------------|
     D|--------------------------|-------------------------|-------------------------|-------------------------|
     A|--------------------------|-------------------------|-------------------------|-------------------------|
     E|--------------------------|-------------------------|-------------------------|-------------------------|
      |                          |                         |                         |                         |
Bass G|--------------------------|-------------------------|-------------------------|-------------------------|
     D|--------------------------|-------------------------|-------------------------|-------------------------|
     A|--0-----0--0-----0--0-----|-2-----2--2-----2--2-----|-3-----3--3-----3--3-----|-4-----4--4-----4--4-----|
     E|--------------------------|-------------------------|-------------------------|-------------------------|
 
Gtr.2E|--------------------------|-------------------------|------------------17-----|-19~~~~~~~---------------|
     H|-17-18-17-15--------------|-17-18-17-15-------------|-17-18-17-15-------------|-----------------17h18p17|
     G|--------------------------|-------------------------|-------------------------|-------------------------|
     D|--------------------------|-------------------------|-------------------------|-------------------------|
     A|--------------------------|-------------------------|-------------------------|-------------------------|
     E|--------------------------|-------------------------|-------------------------|-------------------------|
      |                          |                         |                         |                         |
Bass G|--------------------------|-------------------------|-------------------------|-------------------------|
     D|--------------------------|-------------------------|-------------------------|-------------------------|
     A|--5-----5--5-----5--5-----|-7-----7--7-----7--7-----|-8-----8--8-----8--8-----|-7-----------------------|
     E|--------------------------|-------------------------|-------------------------|-------------------------|
(2:38 - 3:04)
SOLO:
Gtr.1E|--------------------------|-------------------------|-------------------------|-------------------------|
     H|--------------------------|-------------------------|-------------------------|-------------------------|
     G|--------------------------|-------------------------|-------------------------|-------------------------|
     D|--------------------------|-------------------------|-------------------------|-------------------------|
     A|--0--0--0--0--0--0--0--0--|-2--2--2--2--2--2--2--2--|-3--3--3--3--3--3--3--3--|-4--4--4--4--4--4--4--4--|
     E|--------------------------|-------------------------|-------------------------|-------------------------|
      |                          |                         |                         |                         |
Gtr.2E|--17~~~~~~~~~~~~~~~~~~~~~~|(17)~~~~~~~~~~~~~~~~~~~~~|(17)~~~~~~~--------------|-21~~~~---17-------------|
     H|--------------------------|-------------------------|-------------------------|-------------------18----|
     G|--------------------------|-------------------------|-------------------------|-------------------------|
     D|--------------------------|-------------------------|-------------------------|-------------------------|
     A|--------------------------|-------------------------|-------------------------|-------------------------|
     E|--------------------------|-------------------------|-------------------------|-------------------------|
 
Gtr.1E|--------------------------|-------------------------|-------------------------|-------------------------|
     H|--------------------------|-------------------------|-------------------------|-------------------------|
     G|--------------------------|-------------------------|-------------------------|-------------------------|
     D|--------------------------|-------------------------|-------------------------|-------------------------|
     A|--5--5--5--5--5--5--5--5--|-7--7--7--7--7--7--7--7--|-8--8--8--8--8--8--8--8--|-7-----------------------|
     E|--------------------------|-------------------------|-------------------------|-------------------------|
      |                          |                         |                         |                         |
Gtr.2E|--22~~~~---17-------------|-------------------------|-------------------------|-12----------------------|
     H|-------------------18-----|-------------------------|----------------------12-|----------15-13----12----|
     G|--------------------------|-------------------------|----------------12-14-.--|-------------------------|
     D|--------------------------|-------------------12----|-12-14-15-14-15-.--.-----|-------------------------|
     A|--------------------------|-------------12-14--.-15-|-.--.--.--.--.-----------|-------------------------|
     E|--------------------------|-12-12-14-14--.--.-----.-|-------------------------|-------------------------|
                                   .  .  .  .
 
Gtr.1E|--------------------------|-------------------------|-------------------------|-------------------------|
     H|--------------------------|-------------------------|-------------------------|-------------------------|
     G|--------------------------|-------------------------|-------------------------|-------------------------|
     D|--------------------------|-------------------------|-------------------------|-------------------------|
     A|--0--0--0--0--0--0--0--0--|-2--2--2--2--2--2--2--2--|-3--3--3--3--3--3--3--3--|-4--4--4--4--4--4--4--4--|
     E|--------------------------|-------------------------|-------------------------|-------------------------|
      |                          |                         |                         |                         |
Gtr.2E|--17~~~~~~~~~-------------|-20~~~~~~~~~-----19--17--|-15---------------/17-18-|-15-18----18-------------|
     H|------------------15--17--|-------------------------|-------------------------|-------18----17\\\\------|
     G|--------------------------|-------------------------|-------------------------|-------------------------|
     D|--------------------------|-------------------------|-------------------------|-------------------------|
     A|--------------------------|-------------------------|-------------------------|-------------------------|
     E|--------------------------|-------------------------|-------------------------|-------------------------|
 
Gtr.1E|--------------------------|-------------------------|-------------------------|-------------------------|
     H|--------------------------|-------------------------|-------------------------|-------------------------|
     G|--------------------------|-------------------------|-------------------------|-------------------------|
     D|--------------------------|-------------------------|-------------------------|-------------------------|
     A|--5--5--5--5--5--5--5--5--|-7--7--7--7--7--7--7--7--|-8--8--8--8--8--8--8--8--|-7-----5-----------------|
     E|--------------------------|-------------------------|-------------------------|----5-----8--7--5--5--5--|
      |                          |                         |                         |                         |
Gtr.2E|-------------------15--17-|-------------------------|-------------------------|-------------------------|
     H|--15~~~~------/18---------|-17----------------------|-17bend18release17-------|-17-18-15----------------|
     G|--------------------------|-------------------------|----slowly---------------|----------17-16----------|
     D|--------------------------|-------------------------|-------------------------|-------------------------|
     A|--------------------------|-------------------------|-------------------------|-------------------------|
     E|--------------------------|-------------------------|-------------------------|-------------------------|

(3:04 - 3:27) CHORUS, with

alternative ending:
                                 2.----------------------->
     mogu   stat'   peplom,       lish'      poz - nav tvoy
Gtr.1E|--------------------------|-------------------------|
     H|--------------------------|----R--------------------|
     G|-2------------------------|-4--E--------------------|
     D|-3------------------------|-4--S--------------------|
     A|-3------------------------|-2--T--------------------|
     E|-1------------------------|-------------------------|

Tempo: half-time (73 bpm)

(3:27 - 3:55)

RIFF 1A:
        ra  -  a  -  ay...
Gtr.1E|---------------------------------|---------------------------------|
     H|---------------------------------|---------------------------------|
     G|-----7---------------------------|-----7---------------------------|
     D|----------10-----9-----7-----9---|----------10-----9-----7-----9---|
     A|---------------------------------|---------------------------------|
     E|---------------------------------|---------------------------------|
      |                                 |                                 |
Bass G|---------------------------------|---------------------------------|
     D|---------------------------------|---------------------------------|
     A|-5-------------------------------|-8-------------------------------|
     E|---------------------------------|---------------------------------|
 
Gtr.1E|---------------------------------|---------------------------------|
     H|---------------------------------|---------------------------------|
     G|-R---9-----7---------------------|-7-------------------------------|
     D|-E--------------10-----9----10---|------10-----9-------------------|
     A|-S-------------------------------|-----------------7~~~~~~~~~~-----|
     E|-T-------------------------------|---------------------------------|
      |                                 |                                 |
Bass G|-R-------------------------------|---------------------------------|
     D|-E-------------------------------|---------------------------------|
     A|-S-------------------------------|---------------------------------|
     E|-T---5---------------------------|-5-------------------------------|
 
Gtr.1E|---------------------------------|---------------------------------|
     H|---------------------------------|---------------------------------|
     G|-----7---------------------------|-----7---------------------------|
     D|----------10-----9-----7-----9---|----------10-----9-----7-----9---|
     A|---------------------------------|---------------------------------|
     E|---------------------------------|---------------------------------|
      |                                 |                                 |
Bass G|---------------------------------|---------------------------------|
     D|---------------------------------|---------------------------------|
     A|-5-------------------------------|-8-------------------------------|
     E|---------------------------------|---------------------------------|
 
Gtr.1E|---------------------------------|---------------------------------|
     H|---------------------------------|---------------------------------|
     G|-R---9-----7---------------------|-9-------------------------------|
     D|-E--------------10-----9-----10--|---------------------------------|
     A|-S-------------------------------|---------------------------------|
     E|-T-------------------------------|---------------------------------|
      |                                 |                                 |
Gtr.2E|---------------------------------|---------------------------------|
 +   H|---------------------------------|---------------------------------|
Bass G|-R-------------------------------|---------------------------------|
     D|-E-------------------------------|-9-----7---------5-----4---------|
     A|-S---7---------------------------|-7-----5---------3-----2-----3-2-|
     E|-T-------------------------------|---0-0---0-0-0-0---0-0---0-0-----|
                                          > . . > . . . . > . . > . .
 
Gtr.2E|---------------------------------|---------------------------------|
     H|---------------------------------|---------------------------------|
     G|---------------------------------|---------------------------------|
     D|--2------------------------------|---------------------------------|
     A|--0------------------------------|---------------------------------|
     E|---------------------------------|---------------------------------|

 






                       


Copyright © Музыкальный Портал на Куличках 1999-2007      music@kulichki.com


    Stolica.ru    
Реклама в Интернет