Stolica.ru Реклама на Куличках     

Аккорды песен:
A B C D E F G H I J K L M N O P Q R S T U V W X Y Z
АБВГДЕЖЗИКЛМНОПРСТУФХЦЧШЩЭЮЯ





Тексты песен :     A B C D E F G H I J K L M N O P Q R S T U V W X Y Z #

ПОЛНЫЙ СПИСОК ПЕСЕН ГРУППЫ




-->




АРИЯ   

Баллада о древнерусском воине
-----------------------------
tabbed by Vladimir Gelfand ("Little Prince")

INTRO:

Sounds of bell, raven.

Tempo: slow (76 bpm)

(0:24 - 0:37)

RIFF 1: (Play 2 times)
Gtr. E||------------------------------ *^ =  bend 1/4 ---|-------------------------------------------------||
     H||-------------------------------------------------|-------------------------------------------------||
     G||-------------------------------------------------|-------------------------------------------------||
     D||-------------9-----------------7-----------------|-------------0-----------------------0-----------||
     A||-------9-----------9--------7--------------------|-------4-----------4-----------4-----------4-----||
     E||-7-----------------------5-----------3*^---5--3--|-2-----------------------2-----------------------||

(0:37 - 1:08)

INTRO VERSE:

VoiceE|----------------------------------------------------------------------------------------------------|
     H|----------------------------------------------------------------------------------------------------|
     G|---7--------------9-7-----6-------------------------------------------------------------------------|
     D|--------------------------------7-----5-----7---5----4----------------------------------------4-----|
     A|----------------------------------------------------------------------------------------------------|
     E| Vdal'         mchalis' sta  -  i    zim - ni - ih ptitz.                                    Dym    |
      |                                                  |                                                 |
Gtr. E|--------------------------------------------------|-------------------------------------------------|
     H|--------------------------------------------------|-------------------------------------------------|
     G|--------------------------------------------------|-------------------------------------------------|
     D|--------------9-----------------7-----------------|-------------0-----------------------0-----------|
     A|--------9-----------9--------7--------------------|-------4-----------4-----------4-----------4-----|
     E|--7-----------------------5-----------3*^---5--3--|-2-----------------------2-----------------------|
 
VoiceE|----------------------------------------------------------------------------------------------------|
     H|-----------------------------------------------8----7-----------------------------------------------|
     G|---7-----------------7----9-------7---9-------------------------------------------------------------|
     D|----------------------------------------------------------------------------------------------------|
     A|----------------------------------------------------------------------------------------------------|
     E| gnal                ih proch'   bystrey      li - sitz.        ------------------------------------|
      |                                                  |                                                 |
Gtr. E|--------------------------------------------------|-------------------------------------------------|
     H|--------------------------------------------------|-------------------------------------------------|
     G|--------------------------------------------------|-------------------------------------------------|
     D|--------------9-----------------7-----------------|-------------0-----------------------0-----------|
     A|--------9-----------9--------7--------------------|-------4-----------4-----------4-----------4-----|
     E|--7-----------------------5-----------3*^---5--3--|-2-----------------------2-----------------------|
 
VoiceE|----------------------------------------------------------------------------------------------------|
     H|--7-------------------------------------------------------------------------------------------------|
     G|--------------------9-----------------------6-------9----------9------7-----------------------4-6---|
     D|----------------------------------------------------------------------------------------------------|
     A|----------------------------------------------------------------------------------------------------|
     E| Dym              plyl                     nad    vsey        zem - lyoy.                   Lyutyy -|
      |                                                  |                                                 |
Gtr. E|--2-----------------0-----------------------------|-------------------------------------------------|
     H|--3-----------------2-----------------------------|-------------------------------------------------|
     G|--2-----------------2-----------------------------|-2-----------------0-----------------------------|
     D|--0-----------------2-----------------4--4--4-----|-4-----------------0-----------------------------|
     A|--------------------0-----------------0--0--0--0--|-0-----------------x-----------------------------|
     E|--------------------------------------.--.--.--.--|-------------------3-----------------------------|
 
VoiceE|----------------------------------------------------------------------------------------------------|
     H|----------------------------------------------------------------------------------------------------|
     G|--7-----------------9-7-6---------------------------------------------------------------------4--6--|
     D|--------------------------------7------------9------------------------------------------------------|
     A|--------------------------------------9-------------------------------------------------------------|
     E| sbrod             zakatil     pir   go  -  roy.                                            Gde tot |
      |                                                  |                                                 |
Gtr. E|--------------------------------------------------|-------------------------------------------------|
     H|--------------------------------------------------|-------------------------------------------------|
     G|--------------------------------------------------|-------------------------------------------------|
     D|--------------2-----------------------0-----------|-------------5-----------------------5-----------|
     A|--------2-----------2-----------4-----------4-----|-------5--------------------------5-----5-----5--|
     E|--0-----------------------2-----------------------|-3--------------------3--------3-----------3-----|
 
VoiceE|---------------------------------------------------------------|
     H|---------------------------------------------------------------|
     G|--7------------9------7---6------------------------------------|
     D|--------------------------------7------------------------------|
     A|--------------------------------------9------------------------|
     E| vo      -     in, chto krik - net    im:      ----------------|
      |                                                               |
Gtr. E|--------------------------- ritenuto --------------------------|
     H|---------------------------------------------------------------|
     G|-----------------------------------------------0---------------|
     D|--------------2-----------------------0-------(0)--------------|
     A|--------2-----------2-----------4------------------------------|
     E|--0-----------------------2------------------------------------|
Tempo: faster (110 bpm)
(1:08 - 1:44)
RIFF 2 ( Play 2 times; sing only first time ) (chords are implied by bass):
VoiceE|---7----------------------------------------------------------------|
     H|--------------------------------------------------------------------|
     G|--------------------------------------------------------------------|
     D|--------------------------------------------------------------------|
     A|--------------------------------------------------------------------|
     E| "Stoooooo  -  o  -  oy!"  -----------------------------------------|
      |                                  |                                 |
Gtr. E||- Hm ----------------------------|---------------------------------|
     H||---------------------------------|---------------------------------|
     G||-------------7-------6h7p6---------|-------------7-------6h7p6---------|
     D||---------9---------------9p7-----|---------9---------------9p7-----|
     A||-----9----------------------10p9-|-----9----------------------10p9-|
     E||-7-------------------------------|-7-------------------------------|
 
Gtr. E|-- G -----------------------------|---------------------------------|
     H|----------------------------------|---------------------------------|
     G|--------------7-------6h7p6---------|-------------7-------6h7p6---------|
     D|----------9---------------9p7-----|---------9---------------9p7-----|
     A|--7---10---------------------10p9-|-7---10---------------------10p9-|
     E|----------------------------------|---------------------------------|
 
Gtr. E|-- Em ----------------------------|---------------------------------|
     H|----------------------------------|---------------------------------|
     G|--------------7-------6-7-9-7-6---|-------------7-------6-7-9-7-6---|
     D|----------9---------------------9-|---------9---------------------9-|
     A|--7---10--------------------------|-7---10--------------------------|
     E|----------------------------------|---------------------------------|
 
Gtr. E|-- Hm ----------------------------|---------------------------------||
     H|----------------------------------|---------------------------------||
     G|--------------7-------6h7p6---------|---------------------------------||
     D|----------9---------------9p7-----|-----9-------7-------5-------7---||
     A|------9----------------------10p9-|-----9-------7-------5-------7---||
     E|--7-------------------------------|-7-7-7---5-5-5---3-3-3---5-5-5---||
(1:44 - 1:48)
RIFF 3:
Gtr. E|----------------------------------|---------------------------------|
     H|----------------------------------|---------------------------------|
     G|----------------------------------|---------------------------------|
     D|--9---9-9-9---9-9-9---9-9-9---9-9-|-9---9-9-9---9-9-9---9-9-9---7---|
     A|--9---9-9-9---9-9-9---9-9-9---9-9-|-9---9-9-9---9-9-9---9-9-9---7---|
     E|--7---7-7-7---7-7-7---7-7-7---7-7-|-7---7-7-7---7-7-7---7-7-7---5---|

(1:49 - 2:23)

VERSE 1:

VoiceE|--------------------------------------------------------------------|
     H|--------------------------------------------------------------------|
     G|--------------------------------------------------------------------|
     D|--4----4----4-4------4--------------4----4---4--4-------------------|
     A|---------------------------------2------------------------------0---|
     E| Za - pad  katil - sya          volnoy  na  Vostok,            na  -|
      |                                  |                                 |
Gtr. E|----------------------------------|---------------------------------|
     H|----------------------------------|---------------------------------|
     G|----------------------------------|---------------------------------|
     D|--9-------------------------------|-(9)-----------------------------|
     A|--9-------------------------------|-(9)-----------------------------|
     E|--7-------------------------------|-(7)-----------------------------|
 
VoiceE|--------------------------------------------------------------------|
     H|--------------------------------------------------------------------|
     G|--------------------------------------------------------------------|
     D|---2----2---0---2-----2----0-------4--------------------------------|
     A|--------------------------------------------------------------------|
     E| spi - nah  i  na    serdtze     krest.    -------------------------|
      |                                  |                                 |
Gtr. E|----------------------------------|---------------------------------|
     H|----------------------------------|---------------------------------|
     G|----------------------------------|---------------------------------|
     D|--7-------------------------------|-9---9-9-9---9-9-9---9-9-9---7---|
     A|--7-------------------------------|-9---9-9-9---9-9-9---9-9-9---7---|
     E|--5-------------------------------|-7---7-7-7---7-7-7---7-7-7---5---|
 
VoiceE|--------------------------------------------------------------------|
     H|--------------------------------------------------------------------|
     G|--------------------------------------------------------------------|
     D|--4--4----4--4------4---6-----------6----6-6--------6----6-----6-6--|
     A|--------------------------------------------------------------------|
     E| Kopya   tevton - tze - ev        tze - lilis'  v  Solntze,   zapah |
      |                                  |                                 |
Gtr. E|----------------------------------|---------------------------------|
     H|----------------------------------|---------------------------------|
     G|----------------------------------|---------------------------------|
     D|--9-------------------------------|-11------------------------------|
     A|--9-------------------------------|-11------------------------------|
     E|--7-------------------------------|-9-------------------------------|
 
VoiceE|--------------------------------------------------------------------|
     H|--------------------------------------------------------------------|
     G|--------------------------------------------------------------------|
     D|--5----5-----5------5-----7----5---4--------------------------------|
     A|----------------------------------------------------------2----5----|
     E| ga - ri   nyos  chyo - rnu - yu  vest'.                 Fi - lin,  |
      |                                  |                                 |
Gtr. E|----------------------------------|---------------------------------|
     H|----------------------------------|---------------------------------|
     G|----------------------------------|---------------------------------|
     D|--10------------------------------|-9---9-9-9---9-9-9---9-9-9---7---|
     A|--10------------------------------|-9---9-9-9---9-9-9---9-9-9---7---|
     E|--8-------------------------------|-7---7-7-7---7-7-7---7-7-7---5---|
 
        Volk  i   Oryol             poteshalis'  igroy,            chu - ya
Gtr. E|----------------------------------|---------------------------------|
     H|----------------------------------|---------------------------------|
     G|----------------------------------|---------------------------------|
     D|--9-------------------------------|-(9)-----------------------------|
     A|--9-------------------------------|-(9)-----------------------------|
     E|--7-------------------------------|-(7)-----------------------------|
         iz - dali      rus - skuyu      krov'.                  Vsya  ne-
Gtr. E|----------------------------------|---------------------------------|
     H|----------------------------------|---------------------------------|
     G|----------------------------------|---------------------------------|
     D|--7-------------------------------|-9---9-9-9---9-9-9---9-9-9---7---|
     A|--7-------------------------------|-9---9-9-9---9-9-9---9-9-9---7---|
     E|--5-------------------------------|-7---7-7-7---7-7-7---7-7-7---5---|
       chistaya   si - la                 pomosch'  suli - la          Ma -
Gtr. E|----------------------------------|---------------------------------|
     H|----------------------------------|---------------------------------|
     G|----------------------------------|---------------------------------|
     D|--9-------------------------------|-11------------------------------|
     A|--9-------------------------------|-11------------------------------|
     E|--7-------------------------------|-9-------------------------------|
        gistru   i   Or - denu          Psov.
Gtr. E|----------------------------------|---------------------------------|
     H|----------------------------------|---------------------------------|
     G|----------------------------------|---------------------------------|
     D|--10------------------------------|-9---9-9-9---9-9-9---9-9-9-9-9-9-|
     A|--10------------------------------|-9---9-9-9---9-9-9---9-9-9-9-9-9-|
     E|--8-------------------------------|-7---7-7-7---7-7-7---7-7-7-7-7-7-|
(2:24 - 2:41)
CHORUS:
VoiceE|---------------------------------------------------------------------|
     H|---------------------------------------------------------------------|
     G|---------------------------------------------------------------------|
     D|-----------------2--4-------5------4-----2---------------------------|
     A|----2--4--5-------------------------------------------2-5------2-----|
     E|- V altaryah  svyaty   -   ye    pla - chut,         gudit    na -  -|
      |                                  |                                  |
Gtr. E|----------------------------------|----------------------------------|
     H|----------------------------------|----------------------------------|
     G|----------------------------------|----------------------------------|
     D|--2-------------------------------|-(2)------------------------------|
     A|--2-------------------------------|-(2)------------------------------|
     E|--0-------------------------------|-(0)------------------------------|
 
VoiceE|---------------------------------------------------------------------|
     H|---------------------------------------------------------------------|
     G|---------------------------------------------------------------------|
     D|---4--------------2-----------4--------------------------------------|
     A|------------------------------------5--------------------------------|
     E|- ba      -       a     -     a  -  at.   ---------------------------|
      |                                  |                                  |
Gtr. E|----------------------------------|----------------------------------|
     H|----------------------------------|----------------------------------|
     G|----------4-----------------------|---------7------------------------|
     D|----------4-----------------------|---------7------------------------|
     A|--2-------2-----------4---4--4--4-|-5-------5-----------6---6--6--6--|
     E|----------------------------------|----------------------------------|
 
VoiceE|---------------------------------------------------------------------|
     H|---------------------------------------------------------------------|
     G|---------------------------------------------------------------------|
     D|----------------2--4---------5-----4-----2----------------2---2------|
     A|---2--4----5----------------------------------------------------5----|
     E|- Bitvy  chas   uzhe        naz - na - chen.             No   eto    |
      |                                  |                                  |
Gtr. E|----------------------------------|----------------------------------|
     H|----------------------------------|----------------------------------|
     G|--9--------------11---------------|-12--------------14---------------|
     D|--9--------------11---------------|-12--------------14---------------|
     A|--7---------------9---------------|-10--------------12---------------|
     E|----------------------------------|----------------------------------|
      |                                  |                                  |
Bass G|----------------------------------|----------------------------------|
     D|----------------------------------|----------------------------------|
     A|--7---7-7-7---7-7-9---9-9-9---9-9-|-10---10-10-10---10-10-12---12-12-12---12---|
     E|----------------------------------|----------------------------------|
 
VoiceE|---------------------------------------------------------------------|
     H|---------------------------------------------------------------------|
     G|---------------------------------------------4---3----3----3---3-----|
     D|---4-4---4--------4---4--4-------------------------------------------|
     A|---------------------------------------------------------------------|
     E|- budet  ad,    trizhdy  ad.                No  ni  sha - gu  na -   |
      |                                  |                                  |
Gtr. E|----------------------------------|----------------------------------|
     H|----------------------------------|----------------------------------|
     G|----------R---------------R-------|----------------------------------|
     D|--4---4---E-------4---4---E-------|-4--------------------------------|
     A|--4---4---S-------4---4---S-------|-4--------------------------------|
     E|--2---2---T-------2---2---T-------|-2--------------------------------|

(2:41 - 2:45)

RIFF 3:

VoiceE|--------------------------------------------------------------------|
     H|--------------------------------------------------------------------|
     G|--4-----------------------------------------------------------------|
     D|--------------------------------------------------------------------|
     A|--------------------------------------------------------------------|
     E|- zad!--------------------------------------------------------------|
      |                                  |                                 |
Gtr. E|----------------------------------|---------------------------------|
     H|----------------------------------|---------------------------------|
     G|----------------------------------|---------------------------------|
     D|--9---9-9-9---9-9-9---9-9-9---9-9-|-9---9-9-9---9-9-9---9-9-9---7---|
     A|--9---9-9-9---9-9-9---9-9-9---9-9-|-9---9-9-9---9-9-9---9-9-9---7---|
     E|--7---7-7-7---7-7-7---7-7-7---7-7-|-7---7-7-7---7-7-7---7-7-7---5---|

(2:46 - 3:20) VERSE 2

(3:21 - 3:38) CHORUS, finishing with "Na kopyah voin ras -

(3:38 - 4:12)

RIFF 4 (played with wah-wah pedal):

   pya         -         at!            Te - per' e - go  sud'ba                            tenyu  bro - 
E|-2-----------------------|-------------------------|-3-----------------------|-------------2-----------|
H|-3-----------3-----------|-------------------------|-0-------0---------------|---------0-------0-------|
G|-2-----------2-----------|-2-----------------------|-0-------0-------0-------|-----0---------------0---|
D|-0-----------0-----------|-0-----------------------|-0-------0-------0-------|-0-----------------------|
A|---- wahwah -------------|-------------------------|------ wahwah -----------|-------------------------|
E|-------------------------|-------------------------|-------------------------|-------------------------|

   di     -    i   -   i  -  it'         i, sly - sha voy   sobak,                        vnov' mech to - 
E|-2-----------------------|-------------2---3---5---|-3-----------------------|-------------2-----------|
H|-3-----------------------|---------3---------------|-0-----------------------|---------0-------0-------|
G|-2-----------------------|-----2-------------------|-0-----------------------|-----0---------------0---|
D|-0-- wahwah -------------|-0-----------------------|-0---- wahwah -----------|-0-----------------------|
A|-------------------------|-------------------------|-------------------------|-------------------------|
E|-------------------------|-------------------------|-------------------------|-------------------------|

  chi    -     i   -   i  -  it'.        E - mu  ne - vedom  strah,                         vechnyy po -
E|-2-----------------------|-------------2---3---5---|-3-----------------------|-------------2-----------|
H|-3-----------------------|---------3---------------|-0-----------------------|---------0-------0-------|
G|-2-----------------------|-----2-------------------|-0-----------------------|-----0---------------0---|
D|-0-- wahwah -------------|-0-----------------------|-0---- wahwah -----------|-0-----------------------|
A|-------------------------|-------------------------|-------------------------|-------------------------|
E|-------------------------|-------------------------|-------------------------|-------------------------|

  ko     -     o   -   o  -  oy.       Vsyo ob - ra - titsya v prah,                        tol'ko  ne
E|-2-----------------------|-------------2---3---5---|-3-----------------------|-------------2-----------|
H|-3-----------------------|---------3---------------|-0-----------------------|---------0-------0-------|
G|-2-----------------------|-----2-------------------|-0-----------------------|-----0---------------0---|
D|-0-- wahwah -------------|-0-----------------------|-0---- wahwah -----------|-0-----------------------|
A|-------------------------|-------------------------|-------------------------|-------------------------|
E|-------------------------|-------------------------|-------------------------|-------------------------|

(4:13 - 4:46)

RIFF 5:

        o   -   o   -  on!  
Gtr.1E|----------------------------------|---------------------------------|
Gtr.2H|----------------------------------|-----------------------------5---|
     G|--7-------------------------------|-----------------4---6---7---6---|
     D|--7---------------7---------------|-4-----------4---5---7---9-------|
     A|------------------9---------------|-5-----------5-------------------|
     E|----------------------------------|---------------------------------|


Gtr.1E|----------------------------------|---------------------------------|
Gtr.2H|--7-------------------------------|-------------------------7-p-5---|
     G|--7---------------7---------------|-4-----------------------7-p-6---|
     D|------------------7---------------|-5-------------------------------|
     A|----------------------------------|---------------------------------|
     E|----------------------------------|---------------------------------|


Gtr.1E|----------------------------------|---------------------------------|
Gtr.2H|----------------------------------|-----------------------------5---|
     G|--7-------------------------------|-----------------4---6---7---6---|
     D|--7---------------7---------------|-4-----------4---5---7---9-------|
     A|------------------9---------------|-5-----------5-------------------|
     E|----------------------------------|---------------------------------|


Gtr.1E|----------------------------------|---------------------------------|
Gtr.2H|--7-------------------------------|---------------------------------|
     G|--7---------------7---------------|-4~~~~~~~~~~~~~~~~~~~~-----------|
     D|------------------7---------------|-5~~~~~~~~~~~~~~~~~~~~-----------|
     A|----------------------------------|---------------------------------|
     E|----------------------------------|---------------------------------|


Gtr.1E|----------------------------------|---------------------------------|
Gtr.2H|----------------------------------|-----------------------------5---|
     G|--7-------------------------------|-----------------4---6---7---6---|
     D|--7---------------7---------------|-4-----------4---5---7---9-------|
     A|------------------9---------------|-5-----------5-------------------|
     E|----------------------------------|---------------------------------|


Gtr.1E|----------------------------------|---------------------------------|
Gtr.2H|--7-------------------------------|-------------------------7-p-5---|
     G|--7---------------7---------------|-4-----------------------7-p-6---|
     D|------------------7---------------|-5-------------------------------|
     A|----------------------------------|---------------------------------|
     E|----------------------------------|---------------------------------|


Gtr.1E|----------------------------------|---------------------------------|
Gtr.2H|----------------------------------|-----------------------------5---|
     G|--7-------------------------------|-----------------4---6---7---6---|
     D|--7---------------7---------------|-4-----------4---5---7---9-------|
     A|------------------9---------------|-5-----------5-------------------|
     E|----------------------------------|---------------------------------|


Gtr.1E|----------------------------------|-3-------------------------------|
Gtr.2H|--7-------------------------------|-5---------------5---------------|
     G|--7---------------7---------------|-----------------6---------------|
     D|------------------7---------------|---------------------------------|
     A|----------------------------------|---------------------------------|
     E|----------------------------------|---------------------------------|

Tempo: slightly faster (120 bpm)

(4:47 - 5:19)

SOLO:

Gtr.1E|-14----------------------19------17--------------------14---17---|
     H|-----------------------------------------------------------------|
     G|-----------------------------------------------------------------|
     D|-----------------------------------------------------------------|
     A|-----------------------------------------------------------------|
     E|-----------------------------------------------------------------|
      |                                                                 |
Gtr.2E|-----------------------------------------------------------------|
  +  H|-----------------------------------------------------------------|
bass G|-----------------------------------------------------------------|
     D|-----------------------------------------------------------------|
     A|-2---2---2---2---2---2---2---2---2---2---2---2---2---2---2---2---|
     E|-----------------------------------------------------------------|
 
Gtr.1E|-19p17p14-19p17p14-19p17p14-19p17p14-19p17p14-19p17p14-17~~~~~~~~~~~---|
     H|-----------------------------------------------------------------|
     G|-----------------------------------------------------------------|
     D|-----------------------------------------------------------------|
     A|-----------------------------------------------------------------|
     E|-----------------------------------------------------------------|
      |                                                                 |
Gtr.2E|-----------------------------------------------------------------|
  +  H|-----------------------------------------------------------------|
bass G|-----------------------------------------------------------------|
     D|---------------------------------7-----------6-------------------|
     A|-2---2---2---2---2---2---2---2---5-----------4-----------2-p-0---|
     E|-----------------------------------------------------------------|
 
Gtr.1E|-(17)\\-----/14--15-----14p12---------------------12-14-15p14p12-|
     H|-slide------------------------15-14p13p12--12-14-15----------------|
     G|-down------------------------------------------------------------|
     D|-----------------------------------------------------------------|
     A|-----------------------------------------------------------------|
     E|-----------------------------------------------------------------|
      |                                                                 |
Gtr.2E|-----------------------------------------------------------------|
  +  H|-----------------------------------------------------------------|
bass G|-----------------------------------------------------------------|
     D|-----------------------------------------------------------------|
     A|-2---2---2---2---2---2---2---2---2---2---2---2---2---2---2---2---|
     E|-----------------------------------------------------------------|
 
Gtr.1E|--14-------------------------------------------------------------|
     H|-----------------------------------------------------------------|
     G|------------------------------------------------------------\9---|
     D|-----------------------------------------------------------------|
     A|-----------------------------------------------------------------|
     E|-----------------------------------------------------------------|
      |                                                                 |
Gtr.2E|-----------------------------------------------------------------|
  +  H|-----------------------------------------------------------------|
bass G|-----------------------------------------------------------------|
     D|---------------------------------7-----------6-------------------|
     A|-2---2---2---2---2---2---2---2---5-----------4-----------2-p-0---|
     E|-----------------------------------------------------------------|
 
Gtr.1E|-----------------------------------------------------------------|
     H|--14---\\\\----------------------------------------------2h3h5p..|
     G|--11---\\\\--------------------------------------2---4-----------|
     D|----- slide -----------------------------2---4-------------------|
     A|----- down ------2---2---2---4---5-------------------------------|
     E|-----------------------------------------------------------------|
      |                                                                 |
Gtr.2E|-----------------------------------------------------------------|
  +  H|-----------------------------------------------------------------|
bass G|-----------------------------------------------------------------|
     D|-----------------------------------------------------------------|
     A|-2---2---2---2---2---2---2---2---2---2---2---2---2---2---2---2---|
     E|-----------------------------------------------------------------|
 
Gtr.1E|-----------------------------------------------------------------|
     H|.p3p2------------------------------------------------------------|
     G|------4-4b6-4b6rel4p2----2bend4----------------------------------|
     D|----------------------4----------4-------3---2-------------------|
     A|-------------------------------------------------5-------4-------|
     E|-----------------------------------------------------------------|
      |                                                                 |
Gtr.2E|-----------------------------------------------------------------|
  +  H|-----------------------------------------------------------------|
bass G|-----------------------------------------------------------------|
     D|---------------------------------7-----------6-------------------|
     A|-2---2---2---2---2---2---2---2---5-----------4-----------2-p-0---|
     E|-----------------------------------------------------------------|
 
Gtr.1E|-----------------------------------------------------------------|
     H|-------------------------------------------------------------3---|
     G|-----------------------------------------------------2---4-------|
     D|---------------------------------------------2---4---------------|
     A|-2-------------------------------2---4---5-----------------------|
     E|-----------------------------------------------------------------|
      |                                                                 |
Gtr.2E|-----------------------------------------------------------------|
  +  H|-----------------------------------------------------------------|
bass G|-----------------------------------------------------------------|
     D|-----------------------------------------------------------------|
     A|-2---2---2---2---2---2---2---2---2---2---2---2---2---2---2---2---|
     E|-----------------------------------------------------------------|
 
Gtr.1E|-----2---3-5-5p3p2p0-2-------------------------------------------|
     H|-5----------------------5bend7~~~~~~~~~~~~~~~~~~~~~~~~~~---------|
     G|-----------------------------------------------------------------|
     D|-----------------------------------------------------------------|
     A|-----------------------------------------------------------------|
     E|-----------------------------------------------------------------|
      |                                                                 |
Gtr.2E|-----------------------------------------------------------------|
  +  H|-----------------------------------------------------------------|
bass G|-----------------------------------------------------------------|
     D|---------------------------------7-----------6-------------------|
     A|-2---2---2---2---2---2---2---2---5-----------4-----------2-p-0---|
     E|-----------------------------------------------------------------|
 
Gtr.1E|-----------------------------------------------------------------|
     H|------------------------------------ slow release ---------------|
     G|-----------------------------------------------------------------|
     D|-2bend4----------2bend4------2bend4-- release to 2---------------|
     A|-4---------------4-----------4-----------------------------------|
     E|-----------------------------------------------------------------|
      |                                                                 |
Bass G|-----------------------------------------------------------------|
     D|-----------------------------------------------------------------|
     A|-----------------------------------------------------------------|
     E|-2---2---2---2---2---2---2---2---2---2---2---2---2---2---2---2---|
 
Gtr.1E|-----------------------------------------------------------------|
     H|------------------------------------ slow release ---------------|
     G|-----------------------------------------------------------------|
     D|-5bend7----------5bend7------5bend7-- release to 5---------------|
     A|-7---------------7-----------7-----------------------------------|
     E|-----------------------------------------------------------------|
      |                                                                 |
Bass G|-----------------------------------------------------------------|
     D|-----------------------------------------------------------------|
     A|---------------------------------7-----------6-------------------|
     E|-2---2---2---2---2---2---2---2---5-----------4-----------2-p-0---|
 
Gtr.1E|----------------A.H.---------------------5-p4-p2------------------|
     H|-------------------------------------------------5-p4-p2----------|
     G|-2bend4- hold -(<4>)rel2-h4-p2---------------------------4-p3-p1--|
     D|-4------ bend ---------------------------------------------------|
     A|-----------------------------------------------------------------|
     E|-----------------------------------------------------------------|
      |                                                                 |
Bass G|-----------------------------------------------------------------|
     D|-----------------------------------------------------------------|
     A|-----------------------------------------------------------------|
     E|-2---2---2---2---2---2---2---2---2---2---2---2---2---2---2---2---|
 
Gtr.1E|-----------------------------------------------------------------|
     H|-A.H.------------------------------------------------------------|
     G|-<4>bend6----------------2---------------------------------------|
     D|-----------------------------4-----------------------------------|
     A|-----------------------------4-----------------------------------|
     E|-----------------------------------------------------------------|
      |                                                                 |
Bass G|-----------------------------------------------------------------|
     D|-----------------------------------------------------------------|
     A|---------------------------------7-----------6-------------------|
     E|-2---2---2---2---2---2---2---2---5-----------4----------2-p-0----|
 
Gtr.1E|---------------------------------------------13/14-17p14-17p14-17p14-|
     H|-----------------------5h7-p-0--10h14p10-10h14-10h14---------------------|
     G|-----4-4---4-4-4-4h6h7-.-.---------------------------------------|
     D|-4---.-.-4-.-.-.-.-.-.-------------------------------------------|
     A|-.-------.-------------------------------------------------------|
     E|-----------------------------------------------------------------|
      |                                                                 |
Bass G|-----------------------------------------------------------------|
     D|-----------------------------------------------------------------|
     A|-----------------------------------------------------------------|
     E|-2---2---2---2---2---2---2---2---2---2---2---2---2---2---2---2---|
 
Gtr.1E|-17p14-17p14p13\12h13-14-/17--19bend21--------------------------------|
     H|-----------------------------------------------------------------|
     G|-----------------------------------------------------------------|
     D|-----------------------------------------------------------------|
     A|-----------------------------------------------------------------|
     E|-----------------------------------------------------------------|
      |                                                                 |
Bass G|-----------------------------------------------------------------|
     D|-----------------------------------------------------------------|
     A|---------------------------------7-----------6-------------------|
     E|-2---2---2---2---2---2---2---2---5-----------4-----------2-p-0---|
 
Gtr.1E|-----12--12--14--12--12--14--12--13--14--14--13--12--14--15--15--|
     H|-14--------------------------------------------------------------|
     G|-----------------------------------------------------------------|
     D|-----------------------------------------------------------------|
     A|-----------------------------------------------------------------|
     E|-----------------------------------------------------------------|
      |                                                                 |
Bass G|-----------------------------------------------------------------|
     D|-----------------------------------------------------------------|
     A|-----------------------------------------------------------------|
     E|-2---2---2---2---2---2---3---3---3---3---3---3---5---5---5---5---|
 
Gtr.1E|-11-/12--13-/14--15-/16--17-/18--19-/20--20-/21--22--------------|
     H|-----------------------------------------------------------------|
     G|-----------------------------------------------------------------|
     D|-----------------------------------------------------------------|
     A|-----------------------------------------------------------------|
     E|-----------------------------------------------------------------|
      |                                                                 |
Bass G|-----------------------------------------------------------------|
     D|-----------------------------------------------------------------|
     A|---------------------------------4---4---5---5---7---7---5---5---|
     E|-5---5---6---6---7---7---8---8-----------------------------------|

(5:19 - 5:42)

RIFF 6 (played with 2 guitars; chords above the tab are implied by the bass):

        H5                                                D5
Gtr.1E|-------14-14-------14-14-------14-14-15-17-15-14-|-------14-14-------14-14-------14-14-15-17-15-14-|
Gtr.2H|-15-15-15-15-15-15-15-15-15-15-15-15-17-19-17-15-|-15-15-15-15-15-15-15-15-15-15-15-15-17-19-17-15-|
     G|-16-16-------16-16-------16-16-------------------|-16-16-------16-16-------16-16-------------------|
     D|-------------------------------------------------|-------------------------------------------------|
     A|-------------------------------------------------|-------------------------------------------------|
     E|-------------------------------------------------|-------------------------------------------------|
        E5                                                H5
Gtr.1E|-------15-15-------15-15-------15-15-15-14-------|-------14-14-------14-14-------14-14-15-17-15-14-|
Gtr.2H|-17-17-17-17-17-17-17-17-17-17-17-17-17-15-17-15-|-15-15-15-15-15-15-15-15-15-15-15-15-17-19-17-15-|
     G|-18-18-------18-18-------18-18-------------18-16-|-16-16-------16-16-------16-16-------------------|
     D|-------------------------------------------------|-------------------------------------------------|
     A|-------------------------------------------------|-------------------------------------------------|
     E|-------------------------------------------------|-------------------------------------------------|
        H5                                                D5
Gtr.1E|-------14-14-------14-14-------14-14-15-17-15-14-|-------14-14-------14-14-------14-14-15-17-15-14-|
Gtr.2H|-15-15-15-15-15-15-15-15-15-15-15-15-17-19-17-15-|-15-15-15-15-15-15-15-15-15-15-15-15-17-19-17-15-|
     G|-16-16-------16-16-------16-16-------------------|-16-16-------16-16-------16-16-------------------|
     D|-------------------------------------------------|-------------------------------------------------|
     A|-------------------------------------------------|-------------------------------------------------|
     E|-------------------------------------------------|-------------------------------------------------|
        E5
Gtr.1E|-------15-15-------15-15-------15-15-15-14-------|-------------------------------------------------|
Gtr.2H|-17-17-17-17-17-17-17-17-17-17-17-17-17-15-17-15-|-19p0--19p0--17p0--17p0--15p0--15p0--14p0--14p0--|
     G|-18-18-------18-18-------18-18-------------18-16-|-------------------------------------------------|
     D|-------------------------------------------------|-------------------------------------------------|
     A|-------------------------------------------------|-------------------------------------------------|
     E|-------------------------------------------------|-------------------------------------------------|


Gtr.1E|-------------------------------------------------|-------------------------------------------------|
Gtr.2H|-19p0--19p0--17p0--17p0--15p0--15p0--14p0--14p0--|-12p0--12p0--10p0--10p0--8p0---8p0---7p0---7p0---|
     G|-------------------------------------------------|-------------------------------------------------|
     D|-------------------------------------------------|-------------------------------------------------|
     A|-------------------------------------------------|-------------------------------------------------|
     E|-------------------------------------------------|-------------------------------------------------|


Gtr.1E|-------------------------------------------------|
Gtr.2H|-5p0---5p0---3p0---3p0---2p0---2p0---0-h2-p0-----|
     G|-------------------------------------------------|
     D|-------------------------------------------------|
     A|-------------------------------------------------|
     E|-------------------------------------------------|

Tempo: slightly slower (110 bpm)

(5:42 - 5:46)

RIFF 7:

Gtr.1E|----------2--------------------2-----------------|----------2--------<5>---------------------------|
     H|-------2-----5--2-h3-p2-----2----2p0-------------|-------2-----<5>---------<5>---------------------|
     G|-4b6---------------------5-----------------------|-4b6---------------------------<4>---------------|
     D|-------------------------------------4-----------|-------------------------------------<4>---------|
     A|-------------------------------------------------|-------------------------------------------------|
     E|-------------------------------------------------|-------------- Harmonics ------------------------|

(5:46 - 5:58)

RIFF 8: (play 3 times )

Gtr.2E||-------------------------------------------------|-------------------------------------------------||
     H||-------------------------------------------------|-------------------------------------------------||
     G||-------------------------------------------------|-------------------------------------------------||
     D||-------9-----------7-----------5-----------7-----|-9--9--9--9--9--9--9--9--9--9--9--9--9--9--9--9--||
     A||-------9-----------7-----------5-----------7-----|-9--9--9--9--9--9--9--9--9--9--9--9--9--9--9--9--||
     E||-7--7--7-----5--5--5-----3--3--3-----5--5--5-----|-7--7--7--7--7--7--7--7--7--7--7--7--7--7--7--7--||

(5:58 - 6:00)

Play one more measure from RIFF 8, with lead guitar starting the next RIFF:

Gtr.1E|--------------------------------------------------|
     H|--------------------------------------------------|
     G|--------------------------------------------------|
     D|--------------------------------------7-----------|
     A|--------------------------------------------------|
     E|--------------------------------------------------|
      |                                                  |
Gtr.2E|--------------------------------------------------|
     H|--------------------------------------------------|
     G|--------------------------------------------------|
     D|--------9-----------7-----------5-----------7-----|
     A|--------9-----------7-----------5-----------7-----|
     E|--7--7--7-----5--5--5-----3--3--3-----5--5--5-----|

(6:01 - 6:18)

RIFF 9: (play 4 times)

Gtr.1E||-------------------------------------------------|-------------------------------------------------||
Gtr.2H||-------------------7--5--7--------------5--------|----------------------5--8--------7--------------||
     G||-7-----------------7--6--7--------------6--7--6--|-7-----------7--6--7--6--7--------6--------7--6--||
     D||-9-----------------------------------------9--7--|-9-----------9--7--9-----------------------9--7--||
     A||-------------------------------------------------|-------------------------------------------------||
     E||-------------------------------------------------|-------------------------------------------------||
      ||                                                 |                                                 ||
Bass G||-------------------------------------------------|-------------------------------------------------||
     D||-------------------------------------------------|-------------------------5--------4--------------||
     A||-2-----2--2--2-----2--2--2-----2--2--2-----2--2--|-2-----2-----2p0--2--4---5--------4--------5-p4--||
     E||-------------------------------------------------|-------------------------------------------------||

(6:18 - 6:36)

RIFF 9': (play 4 times)

Gtr.2E||------------------10--9--10-------------9--------|----------------------9--10-------9--------------||
Gtr.1H||-12----------------7--5--7--------------5--12-10-|-12---------12-10-12--5--8--------7-------12--10-||
     G||-7-----------------------------------------7--6--|-7-----------7--6--7-----------------------7--6--||
     D||-------------------------------------------------|-------------------------------------------------||
     A||-------------------------------------------------|-------------------------------------------------||
     E||-------------------------------------------------|-------------------------------------------------||
      ||                                                 |                                                 ||
Bass G||-------------------------------------------------|-------------------------------------------------||
     D||-------------------------------------------------|-------------------------5--------4--------------||
     A||-2-----2--2--2-----5-p4--------------------5-p4--|-5-----5-----5p4--5--7---5--------4--------5-p4--||
     E||-------------------------3-----3--3--3-----------|-------------------------------------------------||

(6:36 - 6:40)

Lead gtrs finish the previous RIFF; bass plays RIFF 3:

Gtr.2E|----------------------------------|---------------------------------|
Gtr.1H|--12---------------------\\-slide-|---------------------------------|
     G|--7----------------------\\-down--|---------------------------------|
     D|----------------------------------|---------------------------------|
     A|----------------------------------|---------------------------------|
     E|----------------------------------|---------------------------------|
      |                                  |                                 |
Bass G|----------------------------------|---------------------------------|
     D|----------------------------------|-9---9-9-9---9-9-9---9-9-9---7---|
     A|----------------------------------|-9---9-9-9---9-9-9---9-9-9---7---|
     E|--7---7-7-7---7-7-7---7-7-7---7-7-|-7---7-7-7---7-7-7---7-7-7---5---|

(6:41 - 7:15) VERSE 3

(7:16 - 7:33) CHORUS, finishing with "No ni shagu na -

(7:33 - 7:50) RIFF 2:

VoiceE|--------------------------------------------------------------------|
     H|--------------------------------------------------------------------|
     G|--4-----------------------------------------------------------------|
     D|--------------------------------------------------------------------|
     A|--------------------------------------------------------------------|
     E|- zad!!!!!!!!!!!    ------------------------------------------------|
      |                                  |                                 |
Gtr. E|----------------------------------|---------------------------------|
     H|----------------------------------|---------------------------------|
     G|--------------7-------6h7p6---------|-------------7-------6h7p6---------|
     D|----------9---------------9p7-----|---------9---------------9p7-----|
     A|------9----------------------10p9-|-----9----------------------10p9-|
     E|--7-------------------------------|-7-------------------------------|
 
VoiceE|--------------------------------------------------------------------|
     H|--------------------------------------------------------------------|
     G|--------------------------------------------7---7----7----7----7----|
     D|--------------------------------------------------------------------|
     A|--------------------------------------------------------------------|
     E|--------------------------------------     No  ni  sha - gu   na -  |
      |                                  |                                 |
Gtr. E|----------------------------------|---------------------------------|
     H|----------------------------------|---------------------------------|
     G|--------------7-------6h7p6---------|-------------7-------6h7p6---------|
     D|----------9---------------9p7-----|---------9---------------9p7-----|
     A|--7---10---------------------10p9-|-7---10---------------------10p9-|
     E|----------------------------------|---------------------------------|
 
VoiceE|--------------------------------------------------------------------|
     H|--------------------------------------------------------------------|
     G|---7--------------------------------9-------------------------------|
     D|--------------------------------------------------------------------|
     A|--------------------------------------------------------------------|
     E|- za  -  aaaaaaaaaaaaaaaaaaaaaa  -  aaaaaaaaaaaaaaaaaaaaaaaaaaaa  - |
      |                                  |                                 |
Gtr. E|----------------------------------|---------------------------------|
     H|----------------------------------|---------------------------------|
     G|--------------7-------6-7-9-7-6---|-------------7-------6-7-9-7-6---|
     D|----------9---------------------9-|---------9---------------------9-|
     A|--7---10--------------------------|-7---10--------------------------|
     E|----------------------------------|---------------------------------|
 
VoiceE|--------------------------------------------------------------------|
     H|--------------------------------------------------------------------|
     G|--11----------------------------------------------------------------|
     D|--------------------------------------------------------------------|
     A|--------------------------------------------------------------------|
     E|- ad!!!!!!!!!!!    -------------------------------------------------|
      |                                  |                                 |
Gtr. E|----------------------------------|---------------------------------|
     H|----------------------------------|---------------------------------|
     G|--------------7-------6h7p6---------|---------------------------------|
     D|----------9---------------9p7-----|-----9-------7-------5-------7---|
     A|------9----------------------10p9-|-----9-------7-------5-------7---|
     E|--7-------------------------------|-7-7-7---5-5-5---3-3-3---5-5-5---|
(7:51 - 8:08)
RIFF 2': (see what bass-guitar is doing on this last repeat of RIFF 2)
Gtr. E|----------------------------------|---------------------------------|
     H|----------------------------------|---------------------------------|
     G|--------------7-------6h7p6---------|-------------7-------6h7p6---------|
     D|----------9---------------9p7-----|---------9---------------9p7-----|
     A|------9----------------------10p9-|-----9----------------------10p9-|
     E|--7-------------------------------|-7-------------------------------|
      |                                  |                                 |
Bass G|----------------------------------|---------------------------------|
     D|----------------------------------|---------------------------------|
     A|----------------------------------|---------------------------------|
     E|--7---7-7-7---7-7-7---7-7-7---7-7-|-7---7-7-7---7-7-7---7-7-7---7-7-|
 
Gtr. E|----------------------------------|---------------------------------|
     H|----------------------------------|---------------------------------|
     G|--------------7-------6h7p6---------|-------------7-------6h7p6---------|
     D|----------9---------------9p7-----|---------9---------------9p7-----|
     A|--7---10---------------------10p9-|-7---10---------------------10p9-|
     E|----------------------------------|---------------------------------|
      |                                  |                                 |
Bass G|----------------------------------|---------------------------------|
     D|----------------------------------|-----------------------------11/12-|
     A|-10---10-10-10---10-10-10---10-10-10---10-10-|-10---10-10-10---10-10-10---10-10-10--------|
     E|----------------------------------|---------------------------------|
 
Gtr. E|----------------------------------|---------------------------------|
     H|----------------------------------|---------------------------------|
     G|--------------7-------6-7-9-7-6---|-------------7-------6-7-9-7-6---|
     D|----------9---------------------9-|---------9---------------------9-|
     A|--7---10--------------------------|-7---10--------------------------|
     E|----------------------------------|---------------------------------|
      |                                  |                                 |
Bass G|----------------------------------|---------------------------------|
     D|-14---14-14-14---14-14-14---14-14-14---14-14-|-14---14-14-14---14-14-14---14-14-14---14-14|
     A|----------------------------------|---------------------------------|
     E|----------------------------------|---------------------------------|
 
Gtr. E|----------------------------------|---------------------------------|
     H|----------------------------------|---------------------------------|
     G|--------------7-------6h7p6---------|---------------------------------|
     D|----------9---------------9p7-----|-----9-------7-------5-------7---|
     A|------9----------------------10p9-|-----9-------7-------5-------7---|
     E|--7-------------------------------|-7-7-7---5-5-5---3-3-3---5-5-5---|
      |                                  |                                 |
Bass G|-16---16-16-16---16-16-16---16-16-16---16\---|---------------------------------|
     D|----------------------------- sl -|-9-9-9---7-7-7---5-5-5---7-7-7---|
     A|---------------------------- down |---------------------------------|
     E|----------------------------------|---------------------------------|

OUTRO:

Tempo: slow (76 bpm)

(8:08 - 8:25)

  Vdal'          mchalis' sta  -  i   zim - ni - ih ptitz. 
E|--------------------------------------------------|-------------------------------------------------|
H|----------------------------------------------- ritenuto -------------------------------------------|
G|--------------------------------------------------|-------------------------------------------------|
D|--------------9-----------------7-----------------|-------------------------------------------------|
A|--------9-----------9--------7--------------------|-2-----------------------------------------------|
E|--7-----------------------5-----------3*^---5--3--|-2-----------------------------------------------|

Tempo: faster (110 bpm)

(8:25 - 8:27)

E|----------------------------------|---------------------------------|
H|----------------------------------|---------------------------------|
G|----------------------------------|---------------------------------|
D|------9-------7-------5-------7---|-9-------------------------------|
A|------9-------7-------5-------7---|-9-------------------------------|
E|--7-7-7---5-5-5---3-3-3---5-5-5---|-7-------------------------------|
--------------------------------------------------------------------------------


                       Бaллaдa о Древнерусском воине
                       -----------------------------

Tabbed by Ostapchuk Vladimir

Riff 1 :
                     bend 1/4
E---------------------------------------------------------------|
H---------------------------------------------------------------|
G---------------------------------------------------------------| This line
D-------9----------7-------------------0-------------0----------|   play
A----9-----9-----7------------------4-----4-------4-----4-------|  4 times
E--7-----------5------3^--5--3---2-------------2----------------|

E---------------------------------------------------------------|
H---------------------------------------------------------------|
G--------------------------------7---------7--------------------|
D---4----2---x-x-x-x-x-x---2--2--7------7-----7-----------------|
A---4----2---x-x-x-x-x-x---2--2--5---5-----------5--------------|
E---2----0---x-x-x-x-x-x---0--0---------------------------------|

E---------------------------------------------------------------|
H---------------------------------------------------------------|
G---------7------------2----------------------------------------|
D------7-----7------2-----2----------5-----------5--------------|
A---5------------4----------------5-----5------5---5---5--------|
E------------------------------3-------------3-------3----------|

E---------------------------------------------------------------|
H---------------------------------------------------------------|
G---------7-----------------------------------------------------|
D------7-----7------------0---4---------------------------------|
A---5-----------------4-------4---------------------------------|
E-----------------2---------------------------------------------|

Lyrycs for riff 1 :

В дaль мчaлись стaи зимних птиц.
Дым гнaл их прочь быстрей лисиц.
Дым плыл, нaд всей землей.
Лютый сброд зaкaтил пир горой.
Где тот воин, что крикнет им:

Riff 2 :

   "Сто-о-о-о-й !!!"
E<------------2 times------------>|<------------2 times------------>|
H---------------------------------|---------------------------------|
G*----------7--6--4h6p4-----------|--------4--7--6--4h6p4-----------|
D*-------9---------------7--5--4--|-----5------------------7--5--4--|
A-----9---------------------------|--7------------------------------|
E--7------------------------------|---------------------------------|

E<------------2 times------------>|<------------2 times------------>|
H---------------------------------|---------------------------------|
G--------4--7--6-7-9-7-6-7--------|-----------7--6--4h6p4-----------|
D-----5---------------------------|--------9---------------7--5--4--|
A--7------------------------------|-----9---------------------------|
E---------------------------------|--7------------------------------|
  ________________________________  ______________________________
1.                                ||2.
E---------------------------------||--------------------------------|
H---------------------------------||--------------------------------|
G--------------------------------*||--------------------------------|
D------9------7------5------7----*||------9------7------5------7----|
A------9------7------5------7-----||------9------7------5------7----|
E--7-7-7--5-5-5--3-3-3--5-5-5-----||--7-7-7--5-5-5--3-3-3--5-5-5----|

E---------------------------------------------------------------|
H---------------------------------------------------------------|
G---------------------------------------------------------------|
D---9--9-9-9--9-9-9--9-9-9--9-9-9--9-9-9--9-9-9--9-9-9----------|
A---9--9-9-9--9-9-9--9-9-9--9-9-9--9-9-9--9-9-9--9-9-9----------|
E---7--7-7-7--7-7-7--7-7-7--7-7-7--7-7-7--7-7-7--7-7-7-5-5------|

I verse :

   H5
   Зaпaд кaтился войной нa восток,
E--------------------------------------------------------|
H--------------------------------------------------------|
G---4----------------------------------------------------|
D---4----------------------------------------------------|
A---2----------------------------------------------------|
E--------------------------------------------------------|

        A5                 H5
   Ha спинaх и нa сердце крест.
E--------------------------------------------------------|
H--------------------------------------------------------|
G-------2------------------4--4-4-4--4-4-4--4-4-4-2-2----|
D-------2------------------4--4-4-4--4-4-4--4-4-4-2-2----|
A-------0------------------2--2-2-2--2-2-2--2-2-2-0-0----|
E--------------------------------------------------------|

    H5               C#5
   Kопья тевтонцев, целились в солнце.
E--------------------------------------------------------|
H--------------------------------------------------------|
G---4----------------6-----------------------------------|
D---4----------------6-----------------------------------|
A---2----------------4-----------------------------------|
E--------------------------------------------------------|

          C5              H5
   Зaпaд гaри нес черную весть.
E--------------------------------------------------------|
H--------------------------------------------------------|
G---------5---------------4--4-4-4--4-4-4--4-4-4-2-2-----|
D---------5---------------4--4-4-4--4-4-4--4-4-4-2-2-----|
A---------3---------------2--2-2-2--2-2-2--2-2-2-0-0-----|
E--------------------------------------------------------|

           H5
   Филин, волк и орел потешaлись игрой,
       A5               H5
   Чуя издaли русскую кровь.
          H5          C#5
   Вся нечистaя силa помощь сулилa
      C5               H5
   Мaгистру и ордену псов.
E--------------------------------------------------------|
H--------------------------------------------------------|
G-----5----------------4--4-4-4--4-4-4--4-4-4-4-4--------|
D-----5----------------4--4-4-4--4-4-4--4-4-4-4-4--------|
A-----3----------------2--2-2-2--2-2-2--2-2-2-2-2--------|
E--------------------------------------------------------|

Chorus :

E---------------------------------------------------------------|
H---------------------------------------------------------------|
G---------------------------------------------------------------|
D---------------------------------------------------------------|
A---------------------------------------------------------------|
E---------------------------------------------------------------|

Теперь его судьбa, тенью бродить
И, слышa вой собaк, вновь мечь точить.
Ему не ведом стрaх, вечный покой,
Все обрaтится в прaх, только не

    о-о-о-о-н !
E---------------------------------------------------------------|
H------------------------------5--7--------------7p5------------|
G---7-----------------------4--6--7----7----4----7p6------------|
D---7----7----4----4--5--7--5----------7----5-------------------|
A-------10----5----5--5-10--------------------------------------|
E---------------------------------------------------------------|


E---------------------------------------------------------------|
H------------------------------5--7-----------------------------|
G---7-----------------------4--6--7----7----4~~~~~--------------|
D---7----7----4----4--5--7--5----------7----5~~~~~--------------|
A-------10----5----5--5-10--------------------------------------|
E---------------------------------------------------------------|

E---------------------------------------------------------------|
H------------------------------5--7--------------7p5------------|
G---7-----------------------4--6--7----7----4----7p6------------|
D---7----7----4----4--5--7--5----------7----5-------------------|
A-------10----5----5--5-10--------------------------------------|
E---------------------------------------------------------------|

E-------------------------------------------3-------------------|
H------------------------------5--7---------5---5---------------|
G---7-----------------------4--6--7---7---------6---------------|
D---7----7----4----4--5--7--5---------7-------------------------|
A-------10----5----5--5-10--------------------------------------|
E---------------------------------------------------------------|

 






                       


Copyright © Музыкальный Портал на Куличках 1999-2007      music@kulichki.com


    Stolica.ru    
Реклама в Интернет