Stolica.ru Реклама на Куличках     

Аккорды песен:
A B C D E F G H I J K L M N O P Q R S T U V W X Y Z
АБВГДЕЖЗИКЛМНОПРСТУФХЦЧШЩЭЮЯ





Тексты песен :     A B C D E F G H I J K L M N O P Q R S T U V W X Y Z #

ПОЛНЫЙ СПИСОК ПЕСЕН ГРУППЫ




-->



АРИЯ   

Раскачаем этот мир
------------------
tabbed by Vladimir Gelfand ("Little Prince")


Tempo: slow (80 bpm)

INTRO:

(0:02 - 0:27)

RIFF 1:
Gtr.1E|-------------------------------------------------|-------------------------------------------------|
     H|-------------------------------------------------|-------------------------------------5-----------|
     G|-------5--4--5--4-----5-----4--5--7--5--4--------|-------5--4--5--4-----5-----4--5--7-----7--5--4--|
     D|-------------------7-----------------------7-----|-(7)---------------7-----------------------------|
     A|-------------------------------------------------|-------------------------------------------------|
     E|-------------------------------------------------|-------------------------------------------------|


Gtr.1E|-------------------------------------------------|-------------------------------------------------|
     H|-------------------------------------------------|-------------------------------------5-----------|
     G|-5-----5--4--5--4-----5-----4--5--7--5--4--------|-------5--4--5--4-----5-----4--5--7-----7--5--4--|
     D|-------------------7-----------------------7-----|-(7)---------------7-----------------------------|
     A|-------------------------------------------------|-------------------------------------------------|
     E|-------------------------------------------------|-------------------------------------------------|


Gtr.1E|-------------------------------------------------|-------------------------------------3-----------|
     H|-------5--3--5--3-----5-----3--5--6--5--3--------|-------5--3--5--3-----5-----3--5--6-----6--5--3--|
     G|-5-----------------5-----------------------5-----|-(5)---------------5-----------------------------|
     D|-------------------------------------------------|-------------------------------------------------|
     A|-------------------------------------------------|-------------------------------------------------|
     E|-------------------------------------------------|-------------------------------------------------|


Gtr.1E|-------------------------------------------------|-------------------------------------3-----------|
     H|-5-----5--3--5--3-----5-----3--5--6--5--3--------|-------5--3--5--3-----5-----3--5--6-----6--5--3--|
     G|-------------------5-----------------------5-----|-(5)---------------5-----------------------------|
     D|-------------------------------------------------|-------------------------------------------------|
     A|-------------------------------------------------|-------------------------------------------------|
     E|-------------------------------------------------|-------------------------------------------------|

(0:27 - 0:51)

VERSE 1:

       Go - rod tvoy   -   dvulikiy    zver',    dlya tebya    on    dnyom    otkroet  dver',      a vot v 
Gtr.2E|-------------------------------------------------|-------------------------------------------------|
     H|-------------------------------------------------|-------------------------------------------------|
     G|-2-----------R-----------2-----------R-----------|-0-----------R-----------0-----------R-----------|
     D|-2-----------E-----------2-----------E-----------|-2-----------E-----------2-----------E-----------|
     A|-0-----------S-----------0-----------S-----------|-2-----------S-----------2-----------S-----------|
     E|-------------T--------0--------------T-------0h1-|-0-----------T--------0--0-----------T-----------|

       pol - noch'        on obya  -  vit     te   -   be:                       Ty    -    vrag,
Gtr.2E|-------------------------------------------------|-------------------------------------------------|
     H|-------------------------------------------------|-------------------------------------------------|
     G|-------------R-----------------------R-----------|-------------------------------------------------|
     D|-3-----------E-----------3-----------E-----------|-2-----------------------------------------------|
     A|-3-----------S-----------3-----------S-----------|-2-----------------------------------------------|
     E|-1-----------T-----------1-----------T-----------|-0-----------------------1--1--1--1--3--3--3--3--|

       vrag  parney,       chto ischut drak,       im plevat',  kto  trus,    a kto smel' - chak.   Gorod
Gtr.2E|-------------------------------------------------|-------------------------------------------------|
     H|-------------------------------------------------|-------------------------------------------------|
     G|-2-----------R-----------2-----------R-----------|-0-----------R-----------0-----------R-----------|
     D|-2-----------E-----------2-----------E-----------|-2-----------E-----------2-----------E-----------|
     A|-0-----------S-----------0-----------S-----------|-2-----------S-----------2-----------S-----------|
     E|-------------T--------0--------------T-------0h1-|-0-----------T--------0--0-----------T-----------|

       prya - chet   v nedrah sta  -  i     vol   -   kov.                       No           est'
Gtr.2E|-------------------------------------------------|-------------------------------------------------|
     H|-------------------------------------------------|-------------------------------------------------|
     G|-------------R-----------------------R-----------|-------------------------------------------------|
     D|-3-----------E-----------3-----------E-----------|-2-----------------------------------------------|
     A|-3-----------S-----------3-----------S-----------|-2-----------------------------------------------|
     E|-1-----------T-----------1-----------T-----------|-0-----------------------1--1--1--1--3--3--3--3--|

(0:52 - 1:16)

CHORUS: (chords pertain to Gtr.2)

       A5                      C5                        D5                      F5          G5
      my!         Ras - ka - cha  -  em    e  -  tot  mir,                     gde v razgare gryaz - nyy
BassG|-------------------------------------------------|-------------7\----------------------------------|
    D|-------------7\----------------------10\---------|-------------------------------------------------|
    A|-------------------------------------------------|-5--5--5--5--------------------------------------|
    E|-5--5--5--5--------------8--8--8--8--------------|-------------------------1--1--1--1--3--3--3--3--|

       A5                      C5                        D5                      C5          E5
      pir.        Duh    na - sil - ya   rvyot - sya v dom,                na - sil - ye  rvyot - sya v
BassG|-------------------------------------------------|-------------7\----------------------------------|
    D|-------------7\----------------------10\---------|----------------------------5--------------------|
    A|-------------------------------------------------|-5--5--5--5--------------7-----------7-----------|
    E|-5--5--5--5--------------8--8--8--8--------------|----------------------------------7-----7--8-----|

       A5                      C5                        D5                      F5          G5
      dom.        Ras - ka - cha  -  em    e  -  tot  mir,                        ili volki,  ili  my  -
BassG|-------------------------------------------------|-------------7\----------------------------------|
    D|-------------7\----------------------10\---------|-------------------------------------------------|
    A|-------------------------------------------------|-5--5--5--5--------------------------------------|
    E|-5--5--5--5--------------8--8--8--8--------------|-------------------------1--1--1--1--3--3--3--3--|

       A5                      C5                        D5                      F5          E5
      - y!       Zdes' dlya  sla - byh   me - sta   net,                 dlya  sla - byh    me  -  sta 
BassG|-------------------------------------------------|-------------7\----------------------------------|
    D|-------------7\----------------------10\---------|----------------------------5--------------------|
    A|-------------------------------------------------|-5--5--5--5--------------7-----------7-----------|
    E|-5--5--5--5--------------8--8--8--8--------------|----------------------------------7-----7--8-----|

(1:16 - 1:40) Repeat RIFF 1:

        net,       ne - e - e - e - et ......

Gtr.1E|-------------------------------------------------|-------------------------------------------------|
     H|-------------------------------------------------|-------------------------------------5-----------|
     G|-------5--4--5--4-----5-----4--5--7--5--4--------|-------5--4--5--4-----5-----4--5--7-----7--5--4--|
     D|-------------------7-----------------------7-----|-(7)---------------7-----------------------------|
     A|-------------------------------------------------|-------------------------------------------------|
     E|-------------------------------------------------|-------------------------------------------------|


Gtr.1E|-------------------------------------------------|-------------------------------------------------|
     H|-------------------------------------------------|-------------------------------------5-----------|
     G|-5-----5--4--5--4-----5-----4--5--7--5--4--------|-------5--4--5--4-----5-----4--5--7-----7--5--4--|
     D|-------------------7-----------------------7-----|-(7)---------------7-----------------------------|
     A|-------------------------------------------------|-------------------------------------------------|
     E|-------------------------------------------------|-------------------------------------------------|


Gtr.1E|-------------------------------------------------|-------------------------------------3-----------|
     H|-------5--3--5--3-----5-----3--5--6--5--3--------|-------5--3--5--3-----5-----3--5--6-----6--5--3--|
     G|-5-----------------5-----------------------5-----|-(5)---------------5-----------------------------|
     D|-------------------------------------------------|-------------------------------------------------|
     A|-------------------------------------------------|-------------------------------------------------|
     E|-------------------------------------------------|-------------------------------------------------|


Gtr.1E|-------------------------------------------------|-------------------------------------3-----------|
     H|-5-----5--3--5--3-----5-----3--5--6--5--3--------|-------5--3--5--3-----5-----3--5--6-----6--5--3--|
     G|-------------------5-----------------------5-----|-(5)---------------5-----------------------------|
     D|-------------------------------------------------|-------------------------------------------------|
     A|-------------------------------------------------|-------------------------------------------------|
     E|-------------------------------------------------|-------------------------------------------------|

(1:41 - 2:05) VERSE 2

(2:05 - 2:30) CHORUS

Tempo: faster (100 bpm)

(2:33 - 2:52)

RIFF 2:

Bass G|-------------------------------------------------|-------------------------------------------------|
     D|-------10----9-----10----12----10----9-----10----|-7-----10----9-----10----12----10----9-----10----|
     A|-0--------0-----0-----0-----0-----0-----0-----0--|----0-----0-----0-----0-----0-----0-----0-----0--|
     E|-------------------------------------------------|-------------------------------------------------|
      |                                                 |                                                 |
Gtr.2E|-------------------------------------------------|-------------------------------------------------|
     H|-------------------------------------------------|-------------------------------------------------|
     G|-------------------------------------------5-----|------R------------------------------------9--10-|
     D|-------------------------------------------5--7--|-(7)--E------------------------------------10-10-|
     A|----------------------------------------------7--|-(7)--S------------------------------------------|
     E|-------------------------------------------------|------T------------------------------------------|
 
Bass G|-------------------------------------------------|-------------------------------------------------|
     D|-7-----10----9-----10----12----10----9-----10----|-7-----10----9-----10----12----10----9-----10----|
     A|----0-----0-----0-----0-----0-----0-----0-----0--|----0-----0-----0-----0-----0-----0-----0-----0--|
     E|-------------------------------------------------|-------------------------------------------------|
      |                                                 |                                                 |
Gtr.2E|-------------------------------------------------|-------------------------------------------------|
     H|-------------------------------------------------|-------------------------------------------------|
     G|-(10)-----------------------------------------7--|-(7)--R---------------9--------------------------|
     D|-(10)-----------------------------------------7--|-(7)--E---------------9-----------------------7--|
     A|----------------------------------------------5--|-(5)--S---------------7-----------------------7--|
     E|-------------------------------------------------|------T---------------------------------------5--|
 
Bass G|-------------------------------------------------|-------------------------------------------------|
     D|-7-----10----9-----10----12----10----9-----10----|-7-----10----9-----10----12----10----9-----10----|
     A|----0-----0-----0-----0-----0-----0-----0-----0--|----0-----0-----0-----0-----0-----0-----0-----0--|
     E|-------------------------------------------------|-------------------------------------------------|
      |                                                 |                                                 |
Gtr.2E|-------------------------------------------------|-------------------------------------------------|
     H|-------------------------------------------------|-------------------------------------------------|
     G|------R------------------------------------5-----|------R------------------------------------9--10-|
     D|-(7)--E------------------------------------5--7--|-(7)--E------------------------------------10-10-|
     A|-(7)--S---------------------------------------7--|-(7)--S------------------------------------------|
     E|-(5)--T------------------------------------------|------T------------------------------------------|
 
Bass G|-------------------------------------------------|-------------------------------------------------|
     D|-7-----10----9-----10----12----10----9-----10----|-7-----10----9-----10----12----10----9-----10----|
     A|----0-----0-----0-----0-----0-----0-----0-----0--|----0-----0-----0-----0-----0-----0-----0-----0--|
     E|-------------------------------------------------|-------------------------------------------------|
      |                                                 |                                                 |
Gtr.2E|-------------------------------------------------|-------------------------------------------------|
     H|-------------------------------------------------|-------------------------------------------------|
     G|-(10)-----------------------------------------7--|-(7)--R---------------9--------------------------|
     D|-(10)-----------------------------------------7--|-(7)--E---------------9-----------------------7--|
     A|----------------------------------------------5--|-(5)--S---------------7-----------------------7--|
     E|-------------------------------------------------|------T---------------------------------------5--|

(2:52 - 3:11)

RIFF 2' (another guitar joins)(Play 2 times):

Bass G||-------------------------------------------------|-------------------------------------------------|
     D||-7-----10----9-----10----12----10----9-----10----|-7-----10----9-----10----12----10----9-----10----|
     A||----0-----0-----0-----0-----0-----0-----0-----0--|----0-----0-----0-----0-----0-----0-----0-----0--|
     E||-------------------------------------------------|-------------------------------------------------|
      ||                                                 |                                                 |
Gtr.2E||-------------------------------------------------|-------------------------------------------------|
     H||-------------------------------------------------|-------------------------------------------------|
     G||-------------------------------------------5-----|-------------------------------------------9--10-|
     D||-(7)---------------------------------------5--7--|-(7)---------------------------------------10-10-|
     A||-(7)------------------------------------------7--|-(7)---------------------------------------------|
     E||-(5)---------------------------------------------|-------------------------------------------------|
      ||                                                 |                                                 |
Gtr.1E||------------------------ bend -------------------|-------------------------------------------------|
     H||------------------------ 1/4  -------------------|-------------------------------------------------|
     G||-------------------/9---7-^----------------------|-------------------/9---7-^----------------------|
     D||-(7)---------------------------10----9----10--7--|-(7)---------------------------10----9----10--7--|
     A||-------------------------------------------------|-------------------------------------------------|
     E||-------------------------------------------------|-------------------------------------------------|
 
Bass G|-------------------------------------------------|-------------------------------------------------||
     D|-7-----10----9-----10----12----10----9-----10----|-7-----10----9-----10----12----10----9-----10----||
     A|----0-----0-----0-----0-----0-----0-----0-----0--|----0-----0-----0-----0-----0-----0-----0-----0--||
     E|-------------------------------------------------|-------------------------------------------------||
      |                                                 |                                                 ||
Gtr.2E|-------------------------------------------------|-------------------------------------------------||
     H|-------------------------------------------------|-------------------------------------------------||
     G|-(10)-----------------------------------------7--|-(7)--R---------------9--------------------------||
     D|-(10)-----------------------------------------7--|-(7)--E---------------9-----------------------7--||
     A|----------------------------------------------5--|-(5)--S---------------7-----------------------7--||
     E|-------------------------------------------------|------T---------------------------------------5--||
      |                                                 |                                                 ||
Gtr.1E|-------------------------------------------------|-------------------------------------------------||
     H|-------------------------------------------------|-------------------------------------------------||
     G|-------------------/9---7-^----------------------|-------------------/9---7-^----------------------||
     D|-(7)---------------------------10----9----10--7--|-(7)---------------------------10----9----10--7--||
     A|-------------------------------------------------|-------------------------------------------------||
     E|-------------------------------------------------|-------------------------------------------------||

(3:11 - 4:07)

SOLO:

Gtr.1E|--14~~~~~~~~~~~~----------17~~~~~~~~~~~~~~~-------|--21~~~~~~~~~~~~~~~-------21~~~~~~~~~~~~~~--------|
     H|-------------------/12-14-------------------------|--------------------------------------------------|
     G|--------------------------------------------------|--------------------------------------------------|
     D|--------------------------------------------------|--------------------------------------------------|
     A|--------------------------------------------------|--------------------------------------------------|
     E|--------------------------------------------------|--------------------------------------------------|
      |                                                  |                                                  |
Bass G|--------------------------------------------------|--------------------------------------------------|
     D|--------------------------------------------------|--------------------------------------------------|
     A|--------------------------------------------------|--------------------------------------------------|
     E|--2--2--2--2--2--2--2--2--2--2--2--2--2--2--2--2--|--2--2--2--2--2--2--2--2--2--2--2--2--2--2--2--2--|
 
Gtr.1E|-----21-19----------------------------------------|--------------21p19p17-\-----------------21p19p17-------|
     H|-----------22-21~~~~~~~~~~~-----------------------|--------------------------------------------------|
     G|--------------------------------------------------|--18p16p14----------------14-18p16p14----------------18p16|
     D|--------------------------------------------------|--------------------------------------------------|
     A|--------------------------------------------------|--------------------------------------------------|
     E|--------------------------------------------------|--------------------------------------------------|
      |                                                  |                                                  |
Bass G|--------------------------------------------------|--------------------------------------------------|
     D|--------------------------------------------------|--------------------------------------------------|
     A|--------------------------------------------------|--------------------------------------------------|
     E|--0--0--0--0--0--0--0--0--0--0--0--0--0--0--0--0--|--2--2--2--2--2--2--2--2--0--0--0--0--0--0--0--0--|
 
Gtr.1E|--------------------------------------------------|------------------------------------17-19-21--21^-|
     H|--------------------------------------------------|--------------------------17-19-21----------------|
     G|p15--------------------15-------------------------------------------------------|--???--------------18-20--------------------------|
     D|---18p16p15-18p16p15h16--18p16p15-18p16p15h16-18--16--14--16--------------------|--------------------------------------------------|
     A|--------------------------------------------------|--------------------------------------------------|
     E|--------------------------------------------------|--------------------------------------------------|
      |                                                  |                                                  |
Bass G|--------------------------------------------------|--------------------------------------------------|
     D|--------------------------------------------------|--------------------------------------------------|
     A|--------------------------------------------------|--------------------------------------------------|
     E|--2--2--2--2--2--2--2--2--2--2--2--2--2--2--2--2--|--2--2--2--2--2--2--2--2--2--2--2--2--2--2--2--2--|
 
Gtr.1E|---21-^---release-21--19--------------------------|--------------------------------------------------|
     H|--------------------------21~~~~~~~~~~~~----------|------????????????????????????--------------------|
     G|--------------------------------------------------|--------------------------------------------------|
     D|--------------------------------------------------|--------------------------------------------------|
     A|--------------------------------------------------|--------------------------------------------------|
     E|--------------------------------------------------|--------------------------------------------------|
      |                                                  |                                                  |
Bass G|--------------------------------------------------|--------------------------------------------------|
     D|--------------------------------------------------|--------------------------------------------------|
     A|--------------------------------------------------|--------------------------------------------------|
     E|--0--0--0--0--0--0--0--0--0--0--0--0--0--0--0--0--|--2--2--2--2--2--2--2--2--0--0--0--0--0--0--0--0--|
 
Gtr.1E|--------------------------------------------------|--------------------------------------------------|
     H|--------------------------------------------------|--------------------------------------------------|
     G|-----------------------------7--9-10-9h10p9-7h9p7-|--5h7p5-4h5p4-2h4p2-0h2p0-------------------------|
     D|--7--------------7--7--9-10-----------------------|--------------------------3h5p3-2h3p2-0h2p0-------|
     A|--------------------------------------------------|--------------------------------------------3h5p3-|
     E|--------------------------------------------------|--------------------------------------------------|
      |                                                  |                                                  |
Bass G|--------------------------------------------------|--------------------------------------------------|
     D|--------------------------------------------------|--------------------------------------------------|
     A|--------------------------------------------------|--3--3--3--3--3--3--3--3--3--3--3--3--3--3--3--3--|
     E|--5--5--5--5--5--5--5--5--5--5--5--5--5--5--5--5--|--------------------------------------------------|
 
Gtr.1E|--------------------------------------------------|--------------------------------------------------|
     H|--------------------------------------------------|--------------------------5-h8-p5-----5-----------|
     G|--------------------------------------------------|--5h7p5----5-----------------------7--------------|
     D|--------------------------------------------5--7--|--------7--------7--------------------------------|
     A|--2h3p2-0h2p0-------------------------5--7--------|--------------------------------------------------|
     E|--------------3--5--3-/5--5--7--8--7--------------|--------------------------------------------------|
      |                                                  |                                                  |
Bass G|--------------------------------------------------|--------------------------------------------------|
     D|--------------------------------------------------|--------------------------------------------------|
     A|--------------------------------------------------|--2--2--2--2--2--2--2--2--2--2--3--5--3--2--------|
     E|--3--3--3--3--3--3--3--3--3--3--3--3--3--3--3--3--|--------------------------------------------5--3--|
 
Gtr.1E|--------------------------------------------------|-----------------------0--5-p0--7-p0--8-p0--10p0--|
     H|----5h8p5h8p5h8p5-------------------------------------|--------------------------------------------------|
     G|----------------5h7p5h7p5h7p5-------------------------|--------------------------------------------------|
     D|--------------------------5h7p5h7p5h7------7-p5-----|--------------------------------------------------|
     A|-------------------------------------5h7----------|--------------------------------------------------|
     E|-----------------------------------------------8--|-(8)----------------------------------------------|
      |                                                  |                                                  |
Bass G|--------------------------------------------------|--------------------------------------------------|
     D|--------------------------------------------------|--------------------------------------------------|
     A|--------------------------------------------------|--3--3--3--3--3--3--3--3--3--3--3--3--3--3--3--3--|
     E|--5--5--5--5--5--5--5--5--5--5--5--5--5--5--5--5--|--------------------------------------------------|
 
Gtr.1E|--8-p0--7-p0--5-p0--7-p0--5-p0--3-p0--------------|--------------------------------------------------|
     H|--------------------------------------8p7p5-------|--5--8--5-----------------------------------------|
     G|--------------------------------------------7bend9------------7--5-----------------------------------|
     D|--------------------------------------------------|-----------------7--6--5--------------------------|
     A|--------------------------------------------------|--------------------------7--5--7-----------------|
     E|--------------------------------------------------|-----------------------------------8--7--5--------|
      |                                                  |                                                  |
Bass G|--------------------------------------------------|--------------------------------------------------|
     D|--------------------------------------------------|--------------------------------------------------|
     A|--------------------------------------------------|--5--5--5--5--5--5--5--5--5--5--5--5--5--5--5--5--|
     E|--3--3--3--3--3--3--3--3--3--3--3--3--3--3--3--3--|--------------------------------------------------|
 
Gtr.1E|--------------------------------------------------|--------------------------------------------------|
     H|-----12-10-12-10-12-10-12----12-10-12-10-12-10----|-----12-10-12-10-12-10-12----12-10-12-10-12-10----|
     G|-----------------------------------------------12-|(12)-------------------------------------------12-|
     D|--------------------------------------------------|--------------------------------------------------|
     A|--------------------------------------------------|--------------------------------------------------|
     E|--------------------------------------------------|--------------------------------------------------|
      |                                                  |                                                  |
Gtr.2E|--------------------------------------------------|--------------------------------------------------|
     H|--------------------------------------------------|--------------------------------------------------|
     G|-----------------------------------------------5--|-(5)-------------------------------------------7--|
     D|-----------------------------------------------5--|-(5)-------------------------------------------7--|
     A|-----------------------------------------------3--|-(3)-------------------------------------------5--|
     E|--------------------------------------------------|--------------------------------------------------|
      |                                                  |                                                  |
Bass G|--------------------------------------------------|--------------------------------------------------|
     D|--------9-----9-----9-----9-----9-----9-----9-----|--------5-----5-----5-----5-----5-----5-----5-----|
     A|-----7-----7-----7-----7-----7-----7-----7----\3--|-(3)-3-----3-----3-----3-----3-----3-----3----/5--|
     E|--------------------------------------------------|--------------------------------------------------|
 
Gtr.1E|--------------------------------------------------|--------------------------------------------------|
     H|-----12-10-12-10-12-10-12-------------10----------|-----12-10-12-10-12-10-12----12-10-12-10-12-10----|
     G|-(12)---------------------------12-11----12-11-9--|(9)--------------------------------------------12-|
     D|-----------------------------9--------------------|--------------------------------------------------|
     A|--------------------------------------------------|--------------------------------------------------|
     E|--------------------------------------------------|--------------------------------------------------|
      |                                                  |                                                  |
Gtr.2E|--------------------------------------------------|--------------------------------------------------|
     H|--------------------------------------------------|--------------------------------------------------|
     G|-(7)-------------------------------------------9--|-(9)-------------------7-----------------------9--|
     D|-(7)-------------------------------------------9--|-(9)-------------------7-----------------------9--|
     A|-(5)-------------------------------------------7--|-(7)-------------------5-----------------------7--|
     E|--------------------------------------------------|--------------------------------------------------|
      |                                                  |                                                  |
Bass G|--------------------------------------------------|--------------------------------------------------|
     D|--------7-----7-----7-----7-----7-----7-----7-----|--------9-----9-----9-----------7-----7-----7-----|
     A|-(5)-5-----5-----5-----5-----5-----5-----5----/7--|-(7)-7-----7-----7----\5-----5-----5-----5----/7--|
     E|--------------------------------------------------|--------------------------------------------------|
 
Gtr.1E|--------------------------------------------------|--------------------------------------------------|
     H|-----12-10-12-10-12-10-12----12-10-12-10-12-10----|-----12-10-12-10-12-10-12----12-10-12-10-12-10----|
     G|-(12)------------------------------------------12-|(12)-------------------------------------------12-|
     D|--------------------------------------------------|--------------------------------------------------|
     A|--------------------------------------------------|--------------------------------------------------|
     E|--------------------------------------------------|--------------------------------------------------|
      |                                                  |                                                  |
Gtr.2E|--------------------------------------------------|--------------------------------------------------|
     H|--------------------------------------------------|--------------------------------------------------|
     G|-(9)-------------------------------------------5--|-(5)-------------------------------------------7--|
     D|-(9)-------------------------------------------5--|-(5)-------------------------------------------7--|
     A|-(7)-------------------------------------------3--|-(3)-------------------------------------------5--|
     E|--------------------------------------------------|--------------------------------------------------|
      |                                                  |                                                  |
Bass G|--------------------------------------------------|--------------------------------------------------|
     D|--------9-----9-----9-----9-----9-----9-----9-----|--------5-----5-----5-----5-----5-----5-----5-----|
     A|-(7)-7-----7-----7-----7-----7-----7-----7----\3--|-(3)-3-----3-----3-----3-----3-----3-----3----/5--|
     E|--------------------------------------------------|--------------------------------------------------|
 
Gtr.1E|--------------------------------------------------|--------------------------------------------------|
     H|-----12-10-12-10-12-10-12-------------10----------|-----12-10-12-10-12-10-12----12-10-12-10-12-10----|
     G|(12)----------------------------12-11----12-11-9--|(9)--------------------------------------------12-|
     D|-----------------------------9--------------------|--------------------------------------------------|
     A|--------------------------------------------------|--------------------------------------------------|
     E|--------------------------------------------------|--------------------------------------------------|
      |                                                  |                                                  |
Gtr.2E|--------------------------------------------------|--------------------------------------------------|
     H|--------------------------------------------------|--------------------------------------------------|
     G|-(7)-------------------------------------------9--|-(9)-------------------7--------------------------|
     D|-(7)-------------------------------------------9--|-(9)-------------------7-----------------------7--|
     A|-(5)-------------------------------------------7--|-(7)-------------------5-----------------------7--|
     E|--------------------------------------------------|-----------------------------------------------5--|
      |                                                  |                                                  |
Bass G|--------------------------------------------------|--------------------------------------------------|
     D|--------7-----7-----7-----7-----7-----7-----7-----|--------9-----9-----9-----------7-----7-----7-----|
     A|-(5)-5-----5-----5-----5-----5-----5-----5----/7--|-(7)-7-----7-----7----\5-----5-----5-----5-----0--|
     E|--------------------------------------------------|--------------------------------------------------|

(4:07 - 4:45)

INTERLUDE PLAYED UNDER RIFF 2' (4 times):

    A5                               A5                              
           Snachala  draznyat,no ne byut.  Snachala  gonyat, no  ne
    F5                               D5               E5           
   rvut.    I noch' s  volkami   zaodno,     a  ty bezhish' ne chuya
    A5                               A5                              
   nog.      No  neizbezhen  etot   mig:    gluhoy  tupik  pogasit
    F5                               D5                E5             
   krik    i shansov net,ty zdes chuzhoy,  prorochit smert' zverinyy
    A5                               A5                            
   vooooooooooooooooooooooooooooooooooy,                 zverinyy
    F5                               D5                E5           
   vooooooooooooooooooooo  -----     ooooooooooo  ---  ooooooooooooo -
     A5                              A5                               
   - ooooooooooooooooooooooooy!  ....................................
    F5                               D5                E5             
   .................................................................
 

Tempo: slower (80 bpm)

(4:45 - 5:10) VERSE 3

(5:10 - 5:54) CHORUS, slows down at the end.

 






                       


Copyright © Музыкальный Портал на Куличках 1999-2007      music@kulichki.com


    Stolica.ru    
Реклама в Интернет