Stolica.ru Реклама на Куличках     

Аккорды песен:
A B C D E F G H I J K L M N O P Q R S T U V W X Y Z
АБВГДЕЖЗИКЛМНОПРСТУФХЦЧШЩЭЮЯ





Тексты песен :     A B C D E F G H I J K L M N O P Q R S T U V W X Y Z #

ПОЛНЫЙ СПИСОК ПЕСЕН ГРУППЫ




-->



АРИЯ   

Раб страха
----------
tabbed by Vladimir Gelfand ("Little Prince")


Tempo: moderately fast (150 bpm)

INTRO:

(0:01 - 0:07)

RIFF 1:

Gtr.1E|-------------------------------------|------- 5/4 measure --------------------------|
     H|-------------------------------------|----------------------------------------------|
     G|-------------------------------------|----------------------------------------------|
     D|-3-----------------2-----------------|-------------------10----9-----10-------------|
     A|-5-----------------3-----------------|-5-----------------8-----7-----8-----10p8-p7--|
     E|-------------------------------------|-6--------------------------------------------|


Gtr.1E|-------------------------------------|-------------------------------------|
     H|-------------------------------------|-------------------------------------|
     G|-------------------------------------|-------------------------------------|
     D|-7-----------------------------------|-7-----------------------------------|
     A|-5-----5--5--5--5--5--5--5--5--5--5--|-5--5--5--5--5--5--5--5--5--5--5--5--|
     E|-------------------------------------|-------------------------------------|

(0:07 - 0:32)

VERSE 1:

      Slu - shay!              Ty vol'nym schital  sam   sebya,  
Gtr. E|-------------------------------------|-------------------------------------|
     H|-------------------------------------|-------------------------------------|
     G|-------------------------------------|-------------------------------------|
     D|-7-----------------------------------|-------------------------------------|
     A|-5--5--5--5--5--5--5--5--5--5--5--5--|-5--5--5--5--5--5--5--5--5--5--5--5--|
     E|-------------------------------------|-------------------------------------|

       tol' - ko               vo vsyom  pohodil   na    ra - ba.     Ty   bo  -
Gtr. E|-------------------------------------|-------------------------------------|
     H|-------------------------------------|-------------------------------------|
     G|-------------------------------------|-------------------------------------|
     D|-5-----------------------------------|-------------------------------------|
     A|-3--3--3--3--3--3--3--3--3--3--3--3--|-3--3--3--3--3--3--3--3--3--3--3--3--|
     E|-------------------------------------|-------------------------------------|

      yalsya podumat' ne tak,   ty   bo  -  yalsya otvetit' ne tak,  ty  -  rab
Gtr. E|-------------------------------------|-------------------------------------|
     H|-------------------------------------|-------------------------------------|
     G|-------------------------------------|-------------------------------------|
     D|-------------------------------------|-------------------------------------|
     A|-------------------------------------|-3--3--3--3--3--3--3--3--3--3--3--3--|
     E|-6--6--6--6--6--6--6--6--6--6--6--6--|-------------------------------------|

      stra - ha.  
Gtr. E|-------------------------------------|-------------------------------------|
     H|-------------------------------------|-------------------------------------|
     G|-------------------------------------|-------------------------------------|
     D|-------------------------------------|----------------------------5--------|
     A|-5--5--5--5--5--5--5--5--5--5--5--5--|-8--7--5--8--7--5--5--7--8-----8--7--|
     E|-------------------------------------|-------------------------------------|

Strashno v nemilosti byt' u bogov.
Sverhu sil'nee udar kulakom. Strashno
padat' i strashno letat', strashno zhit' a potom umirat'. 
Ty - rab straha.

(0:33 - 0:45)

BRIDGE:
        O - o - o - o!       A  smert' vsyo bli - zhe.      O - o - o - o!        Rabov    u    smer - ti 
Bass G|-------------------------|-------------------------|-------------------------|-------------------------|
     D|-------------------------|-------------------------|-------------------------|-------------------------|
     A|-------1-----3-----1-----|-------1-----3-----1-----|-------3-----5-----3-----|-------3-----5-----3-----|
     E|-3-3-3---3-3---3-3---3-3-|-3-3-3---3-3---3-3---3-3-|-5-5-5---5-5---5-5---5-5-|-5-5-5---5-5---5-5---5-5-|

       net.       Smert' dast  pokoy          i  vechnyy  sve - eeeeeeeeeeeeeeeeee - et !
Bass G|-------------------------|-------------------------|-------------------------|-------------------------|
     D|-------------3---3-3-3-3-|-------------3---3-3-3-3-|-------------------------|-------------------------|
     A|-------------------------|-------------------------|-3-3-3-3-3-3-3-3-3-3-3-3-|-4-4-4-4-4-4-4-4-4-4-4-4-|
     E|-6-6-6-6-6-6-------------|-3-3-3-3-3-3-------------|-------------------------|-------------------------|

(0:45 - 1:14)

CHORUS:

VoiceE|-------------------------------------------------------------------------------------------------------|
     H|-10--------------------------------------10-10--10--10------------------------8-----------------6--8---|
     G|---------------------------7----------------------------------------------------------------7----------|
     D|-------------------------------------------------------------------------------------------------------|
     A|-------------------------------------------------------------------------------------------------------|
     E|- Ne  -  e  -  e  -  e  - bo!           Slabyh  ne  mi  -  i  -  i  -  i  -  luy,         vsem ne pod -|
      |                         |                         |                         |                         |
Gtr. E|-------------------------|-------------------------|-------------------------|-------------------------|
     H|-------------------------|-------------------------|-------------------------|-------------------------|
     G|-7-7-7-9p7-7-10p7-7-9p7-7-|-7-7-7-10p7-7-9p7-7-10p7-7-|-10p7-7-9p7-7-10p7-7-9p7-7-|-9p7-7-10p7-7-9p7-7-10p7-7-|
     D|-------------------------|-------------------------|-------------------------|-------------------------|
     A|----(not sure)-----------|-------------------------|-------------------------|-------------------------|
     E|-------------------------|-------------------------|-------------------------|-------------------------|
      |                         |                         |                         |                         |
Bass G|-------------------------|-------------------------|-------------------------|-------------------------|
     D|-------------------------|-------------------------|-------------------------|-------------------------|
     A|-5-5-5-5-5-5-5-5-5-5-5-5-|-5-5-5-5-5-5-5-5-5-5-5-5-|-------------------------|-------------------------|
     E|-------------------------|-------------------------|-6-6-6-6-6-6-6-6-6-6-6-6-|-6-6-6-6-6-6-6-6-6-6-6-6-|
 
VoiceE|-------------------------------------------------------------------------------------------------------|
     H|-10------------------------8---------------8--8---6--10------------------------------------------------|
     G|-------------------------------------------------------------------------------------------------------|
     D|-------------------------------------------------------------------------------------------------------|
     A|-------------------------------------------------------------------------------------------------------|
     E|- si  -  i  -  i  -  i  - lu             bremya  svobod.     ------------------------------------------|
      |                         |                         |                         |                         |
Gtr. E|-------------------------|-------------------------|-------------------------|-/10---------8-----------|
     H|-------------------------|-------------------------|-------------------------|-------------------------|
     G|-------------------------|-------------------------|-------------------------|-------------------------|
     D|-------------------------|-------------------------|-------------------------|-------------------------|
     A|-------------------------|-------------------------|-------------------------|-------------------------|
     E|-------------------------|-------------------------|-------------------------|-------------------------|
      |                         |                         |                         |                         |
Bass G|-------------------------|-------------------------|-------------------------|-7-7-7-7-7-7-------------|
     D|-------------------------|-------------------------|-7---7-7-7-7-7-7-7-7-----|-------------7-7-7-7-----|
     A|-------------------------|-------------------------|---------------------7---|---------------------8-7-|
     E|-8-8-8-8-8-8-8-8-8-8-8-8-|-8-8-8-8-8-8-8---8---8---|-----------------------8-|-------------------------|
 
VoiceE|-------------------------------------------------------------------------------------------------------|
     H|--10--------------------------------------10-10--10--10-----------------------8-----------------5--6---|
     G|----------------------------7----------------------------------------------------------------7---------|
     D|-------------------------------------------------------------------------------------------------------|
     A|-------------------------------------------------------------------------------------------------------|
     E| Vre  -  e  -  e  -  e  - mya!            Vremya rassu  -  u  -  u  -  u  -  dit,           huzhe ne  -|
      |                         |                         |                         |                         |
Gtr. E|-------------------------|-------------------------|-------------------------|-------------------------|
     H|-------------------------|-------------------------|-------------------------|-------------------------|
     G|-7-7-7-9p7-7-10p7-7-9p7-7-|-7-7-7-10p7-7-9p7-7-10p7-7-|-10p7-7-9p7-7-10p7-7-9p7-7-|-9p7-7-10p7-7-9p7-7-10p7-7-|
     D|-------------------------|-------------------------|-------------------------|-------------------------|
     A|-------------------------|-------------------------|-------------------------|-------------------------|
     E|-------------------------|-------------------------|-------------------------|-------------------------|
      |                         |                         |                         |                         |
Bass G|-------------------------|-------------------------|-------------------------|-------------------------|
     D|-------------------------|-------------------------|-------------------------|-------------------------|
     A|-5-5-5-5-5-5-5-5-5-5-5-5-|-5-5-5-5-5-5-5-5-5-5-5-5-|-------------------------|-------------------------|
     E|-------------------------|-------------------------|-6-6-6-6-6-6-6-6-6-6-6-6-|-6-6-6-6-6-6-6-6-6-6-6-6-|
 
VoiceE|---------------------------------------------------|
     H|-10------------------------8----------8----8----6--|
     G|---------------------------------------------------|
     D|---------------------------------------------------|
     A|---------------------------------------------------|
     E| bu  -  u  -  u  -  u  -  det,      rvis' rab vpe- |
      |                         |                         |
Gtr.1E|-------------------------|-------------------------|
     H|-------------------------|-------------------------|
     G|-------------------------|-------------------------|
     D|-------------------------|-------------5---3---2---|
     A|-------------------------|-------------------------|
     E|-------------------------|-------------------------|
      |                         |                         |
Bass G|-------------------------|-------------------------|
     D|-------------------------|-------------5-----------|
     A|-------------------------|-----------------8---7---|
     E|-8-8-8-8-8-8-8-8-8-8-8-8-|-8-8-8-8-8-8-------------|
       {{{  and here is RIFF 1 part of the Chorus:  }}}
VoiceE|-------------------------------------------------------------------------------------------------------------|
     H|-10----------------------------------------------------------------------------------------------------------|
     G|-------------------------------------------------------------------------------------------------------------|
     D|-------------------------------------------------------------------------------------------------------------|
     A|-------------------------------------------------------------------------------------------------------------|
     E|ryod!  ------------------------------------------------------------------------------------------------------|
      |                         |                               |                         |                         |
Gtr.1E|-------------------------|----  5/4 measure -------------|-------------------------|-------------------------|
     H|-------------------------|-------------------------------|-------------------------|-------------------------|
     G|-------------------------|-------------------------------|-------------------------|-------------------------|
     D|-3-----------2-----------|-------------10--9---10--------|-7-----------------------|-7-----------------------|
     A|-5-----------3-----------|-5-----------8---7---8---10p8p7-|-5-5-5-5-5-5-5-5-5-5-5-5-|-5-5-5-5-5-5-5-5-5-5-5-5-|
     E|-------------------------|-6-----------------------------|-------------------------|-------------------------|

(1:14 - 1:39) VERSE 2

(1:39 - 1:52) BRIDGE

(1:52 - 2:21) CHORUS with RIFF 1 at the end

(2:21 - 2:41) repeat RIFF 1 for 3 more times

SOLO:

Tempo: slower (100 bpm)

(2:41 - 3:18)

Part A:

Gtr.1E|-0--0--12----0--0--12----0--0--10----0--0--10----|-0--0--8-----0--0--8-----7-----------------------|
     H|-------------------------------------------------|---------------------------------10------8---7---|
     G|-------------------------------------------------|-------------------------------------------------|
     D|-------------------------------------------------|-------------------------------------------------|
     A|-------------------------------------------------|-------------------------------------------------|
     E|-------------------------------------------------|-------------------------------------------------|
      |                                                 |                                                 |
Gtr.2E|-------------------------------------------------|-------------------------------------------------|
     H|-------------------------------------------------|-------------------------------------------------|
     G|-9-----------9-----------9-----------9-----------|-9-----------9-----------------------------------|
     D|-9-----------9-----------9-----------9-----------|-9-----------9-----------9-------7-------5---4---|
     A|-7-----------7-----------7-----------7-----------|-7-----------7-----------------------------------|
     E|-------------------------------------------------|-------------------------------------------------|
 
Gtr.1E|-0--0--12----0--0--12----0--0--10----0--0--10----|-0--0--8-----0--0--8-----------------------------|
     H|-------------------------------------------------|-------------------------10------8-------7-------|
     G|-------------------------------------------------|---------------------------------------------9---|
     D|-------------------------------------------------|-------------------------------------------------|
     A|-------------------------------------------------|-------------------------------------------------|
     E|-------------------------------------------------|-------------------------------------------------|
      |                                                 |                                                 |
Gtr.2E|-------------------------------------------------|-------------------------------------------------|
     H|-------------------------------------------------|-------------------------------------------------|
     G|-5-----------5-----------5-----------5-----------|-5-----------5-----------------------------------|
     D|-5-----------5-----------5-----------5-----------|-5-----------5-----------7-------5-------4-------|
     A|-3-----------3-----------3-----------3-----------|-3-----------3-------------------------------7---|
     E|-------------------------------------------------|-------------------------------------------------|
 
Gtr.1E|-------------------------------------------------|---------------------------------------------10--|
     H|-------------7---10--9--10--10-10-10--10---13--12--|-13--13-13-13--13--13--13--13--13--13--13--13------|
     G|-7---7-7-7---------------------------------------|-------------------------------------------------|
     D|-------------------------------------------------|-------------------------------------------------|
     A|-------------------------------------------------|-------------------------------------------------|
     E|-------------------------------------------------|-------------------------------------------------|
      |                                                 |                                                 |
Gtr.2E|-------------------------------------------------|-------------------------------------------------|
     H|-------------------------------------------------|-------------------------------------------------|
     G|-7-----------7-----------7-----------7-----------|-7-----------7-----------------------------------|
     D|-7-----------7-----------7-----------7-----------|-7-----------7-----------5-------7-------5---4---|
     A|-5-----------5-----------5-----------5-----------|-5-----------5-----------------------------------|
     E|-------------------------------------------------|-------------------------------------------------|
 
Gtr.1E|-12--10------------------10----------------------|---------10--------------------------------------|
     H|---------12--10------13------13--12--10------13--|-12--12------12--12--12--10--10--13--10--10--10--|
     G|-----------------12----------------------12------|-------------------------------------------------|
     D|-------------------------------------------------|-------------------------------------------------|
     A|-------------------------------------------------|-------------------------------------------------|
     E|-------------------------------------------------|-------------------------------------------------|
      |                                                 |                                                 |
Gtr.2E|-------------------------------------------------|-------------------------------------------------|
     H|-------------------------------------------------|-------------------------------------------------|
     G|-4-----------4-----------4-----------4-----------|-4-----------------------------------------------|
     D|-4-----------4-----------4-----------4-----------|-4-----------------------7-----------------------|
     A|-2-----------2-----------2-----------2-----------|-2-----------------------7-----------------------|
     E|-------------------------------------------------|-------------------------5-----------------------|
 
Gtr.1E|-0--0--12----0--0--12----0--0--10----0--0--10----|-0--0--8-----0--0--8-----7-----------------------|
     H|-------------------------------------------------|---------------------------------10------8---7---|
     G|-------------------------------------------------|-------------------------------------------------|
     D|-------------------------------------------------|-------------------------------------------------|
     A|-------------------------------------------------|-------------------------------------------------|
     E|-------------------------------------------------|-------------------------------------------------|
      |                                                 |                                                 |
Gtr.2E|-------------------------------------------------|-------------------------------------------------|
     H|-------------------------------------------------|-------------------------------------------------|
     G|-9-----------9-----------9-----------9-----------|-9-----------9-----------------------------------|
     D|-9-----------9-----------9-----------9-----------|-9-----------9-----------9-------7-------5---4---|
     A|-7-----------7-----------7-----------7-----------|-7-----------7-----------------------------------|
     E|-------------------------------------------------|-------------------------------------------------|
 
Gtr.1E|-0--0--12----0--0--12----0--0--10----0--0--10----|-0--0--8-----0--0--8-----------------------------|
     H|-------------------------------------------------|-------------------------10------8-------7-------|
     G|-------------------------------------------------|---------------------------------------------9---|
     D|-------------------------------------------------|-------------------------------------------------|
     A|-------------------------------------------------|-------------------------------------------------|
     E|-------------------------------------------------|-------------------------------------------------|
      |                                                 |                                                 |
Gtr.2E|-------------------------------------------------|-------------------------------------------------|
     H|-------------------------------------------------|-------------------------------------------------|
     G|-5-----------5-----------5-----------5-----------|-5-----------5-----------------------------------|
     D|-5-----------5-----------5-----------5-----------|-5-----------5-----------7-------5-------4-------|
     A|-3-----------3-----------3-----------3-----------|-3-----------3-------------------------------7---|
     E|-------------------------------------------------|-------------------------------------------------|
 
Gtr.1E|-------------------------------------------------|-----------------12--12--12--12--12--12--10--12--|
     H|-------------7---10--9--10--10-10-10--10---13--12--|-13--13--13--13----------------------------------|
     G|-7---7-7-7---------------------------------------|-------------------------------------------------|
     D|-------------------------------------------------|-------------------------------------------------|
     A|-------------------------------------------------|-------------------------------------------------|
     E|-------------------------------------------------|-------------------------------------------------|
      |                                                 |                                                 |
Gtr.2E|-------------------------------------------------|-------------------------------------------------|
     H|-------------------------------------------------|-------------------------------------------------|
     G|-7-----------7-----------7-----------7-----------|-7-----------7-----------------------------------|
     D|-7-----------7-----------7-----------7-----------|-7-----------7-----------------------------------|
     A|-5-----------5-----------5-----------5-----------|-5-----------5-----------------------------------|
     E|-------------------------------------------------|-------------------------------------------------|

Tempo: faster (150 bpm)

Gtr.1E|--14~~~~~~~~~~~~~~~~~~~~~~~~~~~~~~---|(14)bend15---release14---------------|
     H|-------------------------------------|-------------------------------------|
     G|-------------------------------------|-------------------------------------|
     D|-------------------------------------|-------------------------------------|
     A|-------------------------------------|-------------------------------------|
     E|-------------------------------------|-------------------------------------|

(3:18 - 3:43)

Part B of the SOLO:

Gtr.1E|-13~~~~~~~~~~~-----------------------|-------------------------------------|
     H|-------------------------------------|-15----------------------------------|
     G|-------------------------------------|-------------------14----------------|
     D|-------------------------------------|-------------------------------------|
     A|-------------------------------------|-------------------------------------|
     E|-------------------------------------|-------------------------------------|
      |                                     |                                     |
Gtr.2G|-------------------------------------|-------------------------------------|
     D|-------------------------------------|-------------------------------------|
     A|-5--5--5--5--5--5--5--5--5--5--5--5--|-5--5--5--5--5--5--5--5--5--5--5--5--|
     E|-------------------------------------|-------------------------------------|
 
Gtr.1E|-12~~~~~~~~~~~~~~~~~~~~~~~~~~~~~~~~~-|-(12)~~~~---------/17----------------|
     H|-------------------------------------|-------------------------17----------|
     G|-------------------------------------|-------------------------------14----|
     D|-------------------------------------|-------------------------------------|
     A|-------------------------------------|-------------------------------------|
     E|-------------------------------------|-------------------------------------|
      |                                     |                                     |
Gtr.2G|-------------------------------------|-------------------------------------|
     D|-------------------------------------|-------------------------------------|
     A|-------------------------------------|-------------------------------------|
     E|-8--8--8--8--8--8--8--8--8--8--8--8--|-8--8--8--8--8--8--8--8--8--8--8--8--|
 
Gtr.1E|-------------------------------------|-------------------------------------|
     H|-17---------\15~~~~~~~~--------------|-------------------------------------|
     G|---------------------------14h15p14h15p14---------\12----------------10h12-|
     D|-------------------------------------|-------------------------------------|
     A|-------------------------------------|-------------------------------------|
     E|-------------------------------------|-------------------------------------|
      |                                     |                                     |
Gtr.2G|-------------------------------------|-------------------------------------|
     D|-------------------------------------|-------------------------------------|
     A|-------------------------------------|-------------------------------------|
     E|-6--6--6--6--6--6--6--6--6--6--6--6--|-8--8--8--8--8--8--8--8--8--8--8--8--|
 
Gtr.1E|-------------------------------------|-------------------------------------|
     H|-------------------------------------|-------------------------------------|
     G|-10----------------------------------|-------------------12----------------|
     D|-------------------------------------|----------12-14-15----15-14-12-14-15-|
     A|-------------------------------------|-12-14-15----------------------------|
     E|-------------------------------------|-------------------------------------|
      |                                     |                                     |
Gtr.2G|-------------------------------------|-------------------------------------|
     D|-------------------------------------|----------------------------5--------|
     A|-5--5--5--5--5--5--5--5--5--5--5--5--|-8--7--5--8--7--5--5--7--8-----8--7--|
     E|-------------------------------------|-------------------------------------|
 
Gtr.1E|-------------------------------------|-------------------------------------|
     H|-------------------------------------|-------------------------------------|
     G|-------------------------------------|----------------------------12-14-15-|
     D|-12----------------------------------|-(12)--------------12-14-15----------|
     A|-------------------------------------|-------------------------------------|
     E|-------------------------------------|-------------------------------------|
      |                                     |                                     |
Gtr.2G|-------------------------------------|-------------------------------------|
     D|-------------------------------------|-------------------------------------|
     A|-5--5--5--5--5--5--5--5--5--5--5--5--|-5--5--5--5--5--5--5--5--5--5--5--5--|
     E|-------------------------------------|-------------------------------------|
 
Gtr.1E|----------13-15-17-15-15-------------|----------------------12-13-15-13-12-|
     H|-13-15-17----------------13----------|-(13)--------------15----------------|
     G|-------------------------------------|-------------------------------------|
     D|-------------------------------------|-------------------------------------|
     A|-------------------------------------|-------------------------------------|
     E|-------------------------------------|-------------------------------------|
      |                                     |                                     |
Gtr.2G|-------------------------------------|-------------------------------------|
     D|-------------------------------------|-------------------------------------|
     A|-------------------------------------|-------------------------------------|
     E|-8--8--8--8--8--8--8--8--8--8--8--8--|-8--8--8--8--8--8--8--8--8--8--8--8--|
 
Gtr.1E|-13----------------------------------|-------------------------------------|
     H|------11-----------------------10h11-|-10----------------------------------|
     G|-------------------------------------|-------------------12-------------9hh|
     D|-------------------------------------|-------------------------------------|
     A|-------------------------------------|-------------------------------------|
     E|-------------------------------------|-------------------------------------|
      |                                     |                                     |
Gtr.2G|-------------------------------------|-------------------------------------|
     D|-------------------------------------|-------------------------------------|
     A|-------------------------------------|-------------------------------------|
     E|-6--6--6--6--6--6--6--6--6--6--6--6--|-8--8--8--8--8--8--8--8--8--8--8--8--|
 
Gtr.1E|-------------------------------------|-15b17-------------------------------|
     H|-------------------------------------|-------------------------------------|
     G|h10p9--------------------------------|-------------------------------------|
     D|------12-----------------------------|-------------------------------------|
     A|-------------------------------------|-------------------------------------|
     E|-------------------------------------|-------------------------------------|
      |                                     |                                     |
Gtr.2G|-------------------------------------|-------------------------------------|
     D|-------------------------------------|----------------------------5--------|
     A|-5--5--5--5--5--5--5--5--5--5--5--5--|-8--7--5--8--7--5--5--7--8-----8--7--|
     E|-------------------------------------|-------------------------------------|

(3:43 - 3:56) BRIDGE

(3:56 - 4:19) CHORUS

(4:19 - 4:31) slows down + feedback

 






                       


Copyright © Музыкальный Портал на Куличках 1999-2007      music@kulichki.com


    Stolica.ru    
Реклама в Интернет