Stolica.ru Реклама на Куличках     

Аккорды песен:
A B C D E F G H I J K L M N O P Q R S T U V W X Y Z
АБВГДЕЖЗИКЛМНОПРСТУФХЦЧШЩЭЮЯ





Тексты песен :     A B C D E F G H I J K L M N O P Q R S T U V W X Y Z #

ПОЛНЫЙ СПИСОК ПЕСЕН ГРУППЫ




-->



АРИЯ   

1100
----
tabbed by Vladimir Gelfand ("Little Prince")


INTRO:

Tempo: slow (68 bpm)

(0:01 - 0:29)

RIFF 1: (repeat 2 times)
E||--------------------------------------------------|--------------------------------------------------|
H||--------------------------------------------------|--------------------------------------------------|
G||--------------------------------------------------|--------------------------------------------------|
D||--------------------7-----9-----------------9-----|-/10----9-----7-----10----9-----------------9-----|
A||--7-----9-----10----------7-----------------------|--------------------------10----------------------|
E||--------------------------------------------------|--------------------------------------------------|


E|---------------------------------------------------|--------------------------------------------------||
H|---------------------------------------------------|--------------------------------------------------||
G|---------------------------------------------------|--------------------------------------------------||
D|--\7-----------------------------------------------|--------------------------------------------------||
A|---------10----9-----10----7-----------------10----|-\9-----7-----6-----2-----2-----------------------||
E|---------------------------8-----------------------|--------------------------2-----------------------||

Tempo: fast (167 bpm)

(0:30 - 0:42)

RIFF 2:

Gtr. E|-------------------------|-------------------------|-------------------------|-------------------------|
     H|-------------------------|-------------------------|-------------------------|-------------------------|
     G|-5-----5-----5-----5-----|-5-----5-----------8-----|-5-----5-----5-----5-----|-5-----5-----------------|
     D|-5-----5-----5-----5-----|-5-----5-----6-----8-----|-5-----5-----5-----5-----|-5-----5-----6-----8-----|
     A|-3-----3-----3-----3-----|-3-----3-----6-----6-----|-3-----3-----3-----3-----|-3-----3-----6-----8-----|
     E|-------------------------|-------------4-----------|-------------------------|-------------4-----6-----|

Gtr. E|-------------------------|-------------------------|-------------------------|-------------------------|
     H|-------------------------|-------------------------|-------------------------|-------------------------|
     G|-5-----5-----5-----5-----|-5-----5-----------------|-------------------------|-------R--------------5--|
     D|-5-----5-----5-----5-----|-5-----5-----6-----8-----|-5--------6--------5-----|(5)-3--E--------------5--|
     A|-3-----3-----3-----3-----|-3-----3-----6-----8-----|-------------------------|-------S--------6-----3--|
     E|-------------------------|-------------4-----6-----|-------------------------|-------T-----4-----6-----|

(0:42 - 1:06)

VERSE 1:

VoiceE|-------------------------------------------------------------------------------------------------------|
     H|-------8--6------------6-------------------------------------------------------------------------------|
     G|-------------8-7---8-------8-----7--5----------------------------8---7-5-------------------------------|
     D|----------------------------------------------------------8---8-----------8----5-----------------------|
     A|-------------------------------------------------------------------------------------------------------|
     E|---   Ne dotyanem my  do  pol - nochi        -           nas nakryl zenitnyy shkval.     --------------|
      |                         |                         |                         |                         |

Gtr. E|-------------------------|-------------------------|-------------------------|-------------------------|
     H|-------------------------|-------------------------|-------------------------|-------------------------|
     G|-(5)---5-----5-----5-----|----------------------8--|(8)----8-----8-----8-----|----------------------5--|
     D|-(5)---5-----5-----5-----|-6-----6-----6--------8--|(8)----8-----8-----8-----|-5-----5--------------5--|
     A|-(3)---3-----3-----3-----|-6-----6-----6--------6--|(6)----6-----6-----6-----|-5-----5--------6-----3--|
     E|-------------------------|-4-----4-----4--4-4/6----|-------------------------|-3-----3-----4-----6-----|
 
VoiceE|-------------------------------------------------------------------------------------------------------|
     H|-------8--6-------------6----------------------------8-----------8----8-----8--8-----------------------|
     G|-------------8---7--8------8----7---5------------------------------------------------------------------|
     D|-------------------------------------------------------------------------------------------------------|
     A|-------------------------------------------------------------------------------------------------------|
     E|---  Smysla net vzyvat' o po - moschi,           zhzhet         ru - ki  shturval.   ------------------|
      |                         |                         |                         |                         |
Gtr. E|-------------------------|-------------------------|-------------------------|-------------------------|
     H|-------------------------|-------------------------|-------------------------|-------------------------|
     G|(5)----5-----5-----5-----|----------------------8--|(8)----8-----8-----8-----|----------------------5--|
     D|(5)----5-----5-----5-----|-6-----6-----6--------8--|(8)----8-----8-----8-----|-5-----5--------------5--|
     A|(3)----3-----3-----3-----|-6-----6-----6--------6--|(6)----6-----6-----6-----|-5-----5--------6-----3--|
     E|-------------------------|-4-----4-----4--4-4/6----|-------------------------|-3-----3-----4-----6-----|
 
VoiceE|-------------------------------------------------------------------------------------------------------|
     H|------8--6--------------6----------------------------------8-8----8--8-8----8--8-----------------------|
     G|-------------8-7--8--------8----7-5--------------------------------------------------------------------|
     D|-------------------------------------------------------------------------------------------------------|
     A|-------------------------------------------------------------------------------------------------------|
     E|---  Rezhet nebo luch prozhek - tora,                    ryadom "chernye  kresty".     ----------------|
      |                         |                         |                         |                         |
Gtr. E|-------------------------|-------------------------|-------------------------|-------------------------|
     H|-------------------------|-------------------------|-------------------------|-------------------------|
     G|(5)----5-----5-----5-----|----------------------8--|(8)----8-----8-----8-----|----------------------5--|
     D|(5)----5-----5-----5-----|-6-----6-----6--------8--|(8)----8-----8-----8-----|-5-----5--------------5--|
     A|(3)----3-----3-----3-----|-6-----6-----6--------6--|(6)----6-----6-----6-----|-5-----5--------6-----3--|
     E|-------------------------|-4-----4-----4--4-4/6----|-------------------------|-3-----3-----4-----6-----|
 
VoiceE|-------------------------------------------------------------------------------------------------------|
     H|--------8-6-----------6------------------------------------------8-6-----6----8------------------------|
     G|------------8-7-----8------8-----7--5-----------5----8--8--------------8-------------------------------|
     D|-------------------------------------------------------------------------------------------------------|
     A|-------------------------------------------------------------------------------------------------------|
     E|----   Obgoraem  v  etom  pek - le my,          a shtur - man  prosit vyso - ty      -     y     -     |
      |                         |                         |                         |                         |
Gtr. E|-------------------------|-------------------------|-------------------------|-------------------------|
     H|-------------------------|-------------------------|-------------------------|-------------------------|
     G|(5)----5-----5-----5-----|----------------------8--|(8)----8-----8-----8-----|-------------------------|
     D|(5)----5-----5-----5-----|-6-----6-----6--------8--|(8)----8-----8-----8-----|-5-----5-----5-----5-----|
     A|(3)----3-----3-----3-----|-6-----6-----6--------6--|(6)----6-----6-----6-----|-5-----5-----5-----5-----|
     E|-------------------------|-4-----4-----4--4-4/6----|-------------------------|-3-----3-----3-----3-----|
 
        y....
Gtr. E|-------------------------|
     H|-------------------------|
     G|-------------------------|
     D|-5-----5-----5-----5-----|
     A|-5-----5-----5-----5-----|
     E|-3-----3-----3-----3-----|
(1:07 - 1:30)
CHORUS:
VoiceE|-------------------------------------------------------------------------------------------------------|
     H|-------------------------------------------------------------------------------------------------------|
     G|-------------------------------------------------------------------------------------------------------|
     D|--7--------------5-----3----7------------------------7---------------5-----3----7----------------------|
     A|-------------------------------------------------------------------------------------------------------|
     E| Ty      -     sya - cha  sto,                      ty      -      sya - cha  sto,         ------------|
      |                         |                         |                         |                         |
Gtr. E|-------------------------|-------------------------|-------------------------|-------------------------|
     H|-------------------------|-------------------------|-------------------------|-------------------------|
     G|-------------------------|-------------------------|-------------------------|-------------------------|
     D|-7-----------------------|-(7)---------------------|-3-----------------------|-(3)---------------------|
     A|-7-----------------------|-(7)---------------------|-3-----------------------|-(3)---------------------|
     E|-5-----------------------|-(5)---------------------|-1-----------------------|-(1)---------------------|
      |                         |                         |                         |                         |
Bass G|-------------------------|-------------------------|-------------------------|-------------------------|
     D|-------------------------|-------10----9-----7-----|-------------------------|------10-----9-----7-----|
     A|-------------------------|-------------------------|-8-----8-----8-----8-----|-8-----------------------|
     E|-5-----5-----5-----5-----|-5-----------------------|-------------------------|-------------------------|
 
VoiceE|-------------------------------------------------------------------------------------------------------|
     H|-------------------------------------------------------------------------------------------------------|
     G|-------------------------------------------------------------------------------------------------------|
     D|--7--------------5-----3----7--------------------------------------------------------------6-----------|
     A|-----------------------------------------------------7-------8---------7----------8--------------7-----|
     E| ty      -     sya - cha  sto,                    smert'  v lit   -   so         nam      dy - shit.   |
      |                         |                         |                         |                         |
Gtr. E|-------------------------|-------------------------|-------------------------|-------------------------|
     H|-------------------------|-------------------------|-------------------------|-------------------------|
     G|-7-----------------------|-(7)---------------------|-------------------------|-------------------------|
     D|-7-----------------------|-(7)---------------------|-------------------------|-------------6-----------|
     A|-5-----------------------|-(5)---------------------|-7--------8--------7-----|(7)-8--------------7-----|
     E|-------------------------|-------------------------|-------------------------|-------------------------|
      |                         |                         |                         |                         |
Bass G|-------------------------|-------------------------|-------------------------|-------------------------|
     D|-------------------------|-------10----9-----7-----|-------------------------|-------------6-----------|
     A|-5-----5-----5-----5-----|-5-----------------------|-7--------8--------7-----|(7)-8--------------7-----|
     E|-------------------------|-------------------------|-------------------------|-------------------------|
 
VoiceE|-------------------------------------------------------------------------------------------------------|
     H|-------------------------------------------------------------------------------------------------------|
     G|-------------------------------------------------------------------------------------------------------|
     D|--7--------------5-----3----7------------------------7---------------5-----3----7----------------------|
     A|-------------------------------------------------------------------------------------------------------|
     E| Ty      -     sya - cha  sto,                      ty      -      sya - cha  sto,         ------------|
      |                         |                         |                         |                         |
Gtr. E|-------------------------|-------------------------|-------------------------|-------------------------|
     H|-------------------------|-------------------------|-------------------------|-------------------------|
     G|-------------------------|-------------------------|-------------------------|-------------------------|
     D|-7-----------------------|-(7)---------------------|-3-----------------------|-(3)---------------------|
     A|-7-----------------------|-(7)---------------------|-3-----------------------|-(3)---------------------|
     E|-5-----------------------|-(5)---------------------|-1-----------------------|-(1)---------------------|
      |                         |                         |                         |                         |
Bass G|-------------------------|-------------------------|-------------------------|-------------------------|
     D|-------------------------|-------10----9-----7-----|-------------------------|------10-----9-----7-----|
     A|-------------------------|-------------------------|-8-----8-----8-----8-----|-8-----------------------|
     E|-5-----5-----5-----5-----|-5-----------------------|-------------------------|-------------------------|
 
VoiceE|-------------------------------------------------------------------------------------------------------|
     H|-------------------------------------------------------------------------------------------------------|
     G|-------------------------------------------------------------------------------------------------------|
     D|--7--------------5-----3----7--------------------------------------------------------------------------|
     A|-------------------------------------------------------------------------------------------------------|
     E| ty      -     sya - cha  sto.            -------------------------------------------------------------|
      |                         |                         |                         |                         |
Gtr. E|-------------------------|-------------------------|-------------------------|-------------------------|
     H|-------------------------|-------------------------|-------------------------|-------------------------|
     G|-7-----------------------|-(7)---------------------|-------------------------|-------------------------|
     D|-7-----------------------|-(7)---------------------|-------------------------|-------------------------|
     A|-5-----------------------|-(5)---------------------|-7--------8--------7-----|(7)-5--------------------|
     E|-------------------------|-------------------------|-------------------------|-------------8-----7-----|
      |                         |                         |                         |                         |
Bass G|-------------------------|-------------------------|-------------------------|-------------------------|
     D|-------------------------|-------10----9-----7-----|-------------------------|-------------------------|
     A|-5-----5-----5-----5-----|-5-----------------------|-7--------8--------7-----|(7)-5--------------------|
     E|-------------------------|-------------------------|-------------------------|-------------8-----7-----|

(1:30 - 1:33)

RIFF 2A:
       1.----------------------------------------------->
Gtr. E|-------------------------|-------------------------|
     H|-------------------------|-------------------------|
     G|-------------------------|-------R--------------5--|
     D|-5--------6--------5-----|(5)-3--E--------------5--|
     A|-------------------------|-------S--------6-----3--|
     E|-------------------------|-------T-----4-----6-----|

(1:33 - 1:57) VERSE2

(1:58 - 2:21) CHORUS

(2:21 - 2:58)

SOLO 1:

Gtr.E|-------------------------------------------------|-------------------------------------------------|
    H|-8bend10~~~~~~~-------8bend10--------------8-p5--8b10rel8p5--8b10rel8p5--8b10rel8p5---8b10rel8p5---|
    G|-------------------------------------------------|-------------------------------------------------|
    D|-------------------------------------------------|-------------------------------------------------|
    A|-------------------------------------------------|-------------------------------------------------|
    E|-------------------------------------------------|-------------------------------------------------|
     |                                                 |                                                 |
BassG|-------------------------------------------------|-------------------------------------------------|
    D|-------------------------------------------------|-------------------------------------------------|
    A|-------------------------------------------------|-------------------------------------------------|
    E|-5-----------5-----------5-----------5-----------|-5-----------5-----------5-----------5-----------|
 
Gtr.E|-8bend10 ........ rel-8--8-p7-p5-----------------|-------------------------------------------------|
    H|----------------------------------8--9-p8-p6-----|-------------------------------------------------|
    G|----------------------------------------------8--|-9--8--7-p5-----5--------5~~~~~~~~~~~------------|
    D|-------------------------------------------------|-------------7-----------------------------------|
    A|-------------------------------------------------|-------------------------------------------------|
    E|-------------------------------------------------|-------------------------------------------------|
     |                                                 |                                                 |
BassG|-------------------------------------------------|-------------------------------------------------|
    D|-------------------------------------------------|-------------------------------------------------|
    A|-8-----------8-----------8-----------8-----------|-8-----------8-----------8-----------8-----------|
    E|-------------------------------------------------|-------------------------------------------------|
 
Gtr.E|-------------------------------------------------|-------------------------------------------------|
    H|-------------------------------------------------|-------------------------------------------------|
    G|-------4-----5-----7-----5--4--------4-----5-----|-7p5------4bend5release4~~~~~~~~~~~~~~~~---------|
    D|-7--------------------------------7--------------|------7------------------------------------------|
    A|-------------------------------------------------|-------------------------------------------------|
    E|-------------------------------------------------|-------------------------------------------------|
     |                                                 |                                                 |
BassG|-------------------------------------------------|-------------------------------------------------|
    D|-------------------------------------------------|-------------------------------------------------|
    A|-5-----------5-----------5-----------5-----------|-5-----------5-----------5-----------5-----------|
    E|-------------------------------------------------|-------------------------------------------------|
 
Gtr.E|-------------------------------------------------|------------------------/15p13h15p13h15p13-------|
    H|-------------------------------------------------|-------------------------------------------13----|
    G|-2-h4-2-/4---4-h5-4-/5---5-h7-5-/7---7-h9-7-/9---|-9h10-9/10--10h12-10/12--------------------------|
    D|-------------------------------------------------|-------------------------------------------------|
    A|-------------------------------------------------|-------------------------------------------------|
    E|-------------------------------------------------|-------------------------------------------------|
     |                                                 |                                                 |
BassG|-------------------------------------------------|-------------------------------------------------|
    D|-------------------------------------------------|-------------7-----------5-----------------------|
    A|-------------------------------------------------|-------------------------------7-----5-----------|
    E|-5-----------5-----------5-----------5-----------|-5-----------------------------------------5-----|
 
Gtr.E|-------------------------------------------------|-------------------------------------------------|
    H|-(13)--17p13-17p13-17p13-17p13-17p13-17p13-17p13-|-17p13-17p13-17p13-17p13-17p13-17p13-17p13-17p13-|
    G|-------------------------------------------------|-------------------------------------------------|
    D|-------------------------------------------------|-------------------------------------------------|
    A|-------------------------------------------------|-------------------------------------------------|
    E|-------------------------------------------------|-------------------------------------------------|
     |                                                 |                                                 |
BassG|-------------------------------------------------|-------------------------------------------------|
    D|-------------------------------------------------|-------------------------------------------------|
    A|-------------------------------------------------|-------------------------------------------------|
    E|-(5)---------5-----------5-----------5-----------|-5-----------5-----------5-----------5-----------|
 
          T     T     T        T     T     T      T      T     T      T       T
Gtr.E|-17-19p17-19p17-19p17p13-20p15p13-20p15p13-20p15p13-20p15p13-20p13p10-20p13p10-20p13p10--20bend22-p13^rel13----------|
    H|-------------------------------------------------|-------------------------------------------------|
    G|-------------------------------------------------|------------------- Tapping bend: ---------------|
    D|-------------------------------------------------|-------------------- bend at 13 -----------------|
    A|-------------------------------------------------|------------------ then tap at 20 ---------------|
    E|-------------------------------------------------|-------------------------------------------------|
     |                                                 |                                                 |
BassG|-------------------------------------------------|-------------------------------------------------|
    D|-------------------------------------------------|-------------------------------------------------|
    A|-8-----------8-----------8-----------8-----------|-8-----------8-----------8-----------8-----------|
    E|-------------------------------------------------|-------------------------------------------------|
 
Gtr.E|-------------------------------------------------|-------------------------------------------------|
    H|-------------------------------------------------|-------------------------------------------10----|
    G|-9---10------9-----------------------------------|-A.H.--------------------------------------------|
    D|---------12-----10--12---9---10------9-----------|-------------------------------------------------|
    A|---------------------------------12-----10---12--|-<10>bend12--------------------------------------|
    E|-------------------------------------------------|-------------------------10----------------------|
     |                                                 |                                                 |
BassG|-------------------------------------------------|-------------------------------------------------|
    D|-------------------------------------------------|-------------------------------------------------|
    A|-5-----------5-----------5-----------5-----------|-5-----------5-----------5-----5-----5-----------|
    E|-------------------------------------------------|-------------------------------------------5-----|
 
Gtr.E|-------------------------------------------------|-------------------------------------------------|
    H|-(10)--------------12----------------------13----|-(13)--------------15----------------------------|
    G|-------------------------------------------------|-------------------------------------------------|
    D|-------------------------------------------------|-------------------------------------------------|
    A|-------------------------------------------------|-------------------------------------------------|
    E|-------------------------------------------------|-------------------------------------------------|
     |                                                 |                                                 |
BassG|-------------------------------------------------|-------------------------------------------------|
    D|-------------------------------------------------|-------------------------------------------------|
    A|-------7-----------------------9-----------------|-------10----------------------------------------|
    E|-(5)---------5-----7-----------------7-----8-----|-(8)---------8-----10----------------------------|
 
Gtr.E|-------------------------------------------------|-------------------------------------------------|
    H|-13-------------------------------17-13----13/15-|-17----------------13----------------------17----|
    G|-14-------------------------------------16-------|-------------------------14----------------------|
    D|-14----------------------------------------------|-------------------------------------------------|
    A|-------------------------------------------------|-------------------------------------------------|
    E|-------------------------------------------------|-------------------------------------------------|
     |                                                 |                                                 |
BassG|-------------------------------------------------|-------------------------------------------------|
    D|-------------------------------------------------|-------------------------------------------------|
    A|-------------------------------------------------|-------------------------------------------7-----|
    E|-5-----------5-----------5-----------5-----7/----|-8-----------------0-----5-----------------------|
 
Gtr.E|-13----17----------17----------17----------------|-------------------------------------------------|
    H|-------------17----------15----------13----------|-13----------------------------15h17p15-------17-|
    G|-------------------------------------------14----|------------------------/16h17----------17p16----|
    D|-------------------------------------------------|-------------------------------------------------|
    A|-------------------------------------------------|-------------------------------------------------|
    E|-------------------------------------------------|-------------------------------------------------|
     |                                                 |                                                 |
BassG|-------------------------------------------------|-------------------------------------------------|
    D|-------------------------------------------------|-------------------------------------------------|
    A|-5-----------5-----------5-----------5-----7/----|-8-----------------------------------------------|
    E|-------------------------------------------------|-------------------0-----7-----------7-----------|
 
Gtr.E|-------------------------------------------------|-------------------------------------------------|
    H|-13-------------------------------17-13----13/15-|-17----------------13----------------------17----|
    G|----------------------------------------16-------|-------------------------14----------------------|
    D|-------------------------------------------------|-------------------------------------------------|
    A|-------------------------------------------------|-------------------------------------------------|
    E|-------------------------------------------------|-------------------------------------------------|
     |                                                 |                                                 |
BassG|-------------------------------------------------|-------------------------------------------------|
    D|-------------------------------------------------|-------------------------------------------------|
    A|-------------------------------------------------|-------------------------------------------7-----|
    E|-5-----------5-----------5-----------5-----7/----|-8-----------------0-----5-----------------------|
 
Gtr.E|-13----17----------17----------17----------------|-------------------------15----------------------|
    H|-------------17----------15----------13----------|-13----------------------------------------------|
    G|-------------------------------------------14----|-------------------------------------------------|
    D|-------------------------------------------------|-------------------------------------------------|
    A|-------------------------------------------------|-------------------------------------------------|
    E|-------------------------------------------------|-------------------------------------------------|
     |                                                 |                                                 |
BassG|-------------------------------------------------|-------------------------------------------------|
    D|-------------------------------------------------|-------------------------10----10----10----------|
    A|-5-----------5-----------5-----------5-----7/----|-8-----8-----8-----------------------------------|
    E|-------------------------------------------------|----------------------------------------------3--|
 
Gtr.E|--20~~~~-----------------------------------------|-(20)--------------------------------------------|
    H|-------------------------------------------------|-------------------------------------------------|
    G|-------------------------------------------------|-------------------------------------------5-----|
    D|-------------------------------------------------|-------------------------------------------5-----|
    A|-------------------------------------------------|-------------------------------6-----------3-----|
    E|-------------------------------------------------|-------------------------4-----------6-----------|
     |                                                 |                                                 |
BassG|-------------------------------------------------|-------------------------------------------------|
    D|-------------------------------------------------|-------------------------------------------------|
    A|-3-----------3-----------3-----------3-----------|-3-----------3-----------------6-----------3-----|
    E|-------------------------------------------------|-------------------------4-----------6-----------|

(2:58 - 3:22) VERSE 3

(3:23 - 3:46) CHORUS

(3:46 - 4:08)

SOLO 2:

Gtr.E|-------------------------------------------------|-------------------------------------------------|
    H|-------------------------------------------------|-------------------------------------------------|
    G|-------------------------------------------------|-------------------------------------------------|
    D|-10----------------------------10-14p10-14p10-14-p10-----------------------------10-14p10-14p10-14p|
    A|-------------------------------------------------|-------------------------------------------------|
    E|-------------------------------------------------|-------------------------------------------------|
     |                                                 |                                                 |
BassG|-------------------------------------------------|-------------------------------------------------|
    D|-------------------------------------------------|-------------------------------------------------|
    A|-------------------------------------------------|-8-----------8-----------8-----------8-----------|
    E|-5-----------5-----------5-----------5-----------|-------------------------------------------------|
 
Gtr.E|-------------------------------------------------|-------------------------------------------------|
    H|-------------------------------------------------|-------------------------------------------------|
    G|-------------------------------------------------|-------------------------10----------------------|
    D|-p10---------------------12----------------------|-10bend12......rel10p9---------------------------|
    A|-------------------------------------------------|----------hold-----------------------------------|
    E|-------------------------------------------------|----------bend-----------------------------------|
     |                                                 |                                                 |
BassG|-------------------------------------------------|-------------------------------------------------|
    D|-------------------------------------------------|-------------------------6-----------6-----------|
    A|-5-----------5-----------5-----------5-----------|-7-----------7-----------------------------------|
    E|-------------------------------------------------|-------------------------------------------------|
 
Gtr.E|-------------------------------------------------|-------------------------------------------------|
    H|-------------------------------------------------|-------------------------------------------------|
    G|-9-----------------------------9--12p9--12p9--12-p9------------------------------9--12p9--12p9--12p|
    D|-------------------------------------------------|-------------------------------------------------|
    A|-------------------------------------------------|-------------------------------------------------|
    E|-------------------------------------------------|-------------------------------------------------|
     |                                                 |                                                 |
BassG|-------------------------------------------------|-------------------------------------------------|
    D|-------------------------------------------------|-------------------------------------------------|
    A|-------------------------------------------------|-8-----------8-----------8-----------8-----------|
    E|-5-----------5-----------5-----------5-----------|-------------------------------------------------|
 
Gtr.E|-------------------------------------------------|-------------------------------------------------|
    H|-------------------------------------------------|-------------------------10----------------------|
    G|-p9----------------------10----------------------|-9bend10...rel9----------------------------------|
    D|-------------------------------------------------|-------------------------------------------------|
    A|-------------------------------------------------|-------------------------------------------------|
    E|-------------------------------------------------|-------------------------------------------------|
     |                                                 |                                                 |
BassG|-------------------------------------------------|-------------------------------------------------|
    D|-------------------------------------------------|-------------------------6-----------6-----------|
    A|-5-----------5-----------5-----------5-----------|-7-----------7-----------------------------------|
    E|-------------------------------------------------|-------------------------------------------------|
 
Gtr.E|-------------------------------------------------|-------------------------------------------------|
    H|-/15--15^-15^15^15^15^15^15^15^15^15^15^15^15^15^|-15^15^15^15^15^15^15^15^15^15^15^15^15^15^15^15^|
    G|---------   gradual full bend  ---  tremolo picking of the bent note ------------------------------|
    D|-------------------------------------------------|-------------------------------------------------|
    A|-------------------------------------------------|-------------------------------------------------|
    E|-------------------------------------------------|-------------------------------------------------|
     |                                                 |                                                 |
BassG|-------------------------------------------------|-------------------------------------------------|
    D|-------------------------------------------------|-------------------------------------------------|
    A|-------------------------------------------------|-8-----------8-----------8-----------8-----------|
    E|-5-----------5-----------5-----------5-----------|-------------------------------------------------|
 
Gtr.E|-------------------------------------------------|--------------------------------------------/17--|
    H|-15^15-15-15-15-15-15-15-15-15-15-15p13----15bendto17~~~~~~~~~/--------------------------- sl. ----|
    G|--  gradual release -----------------------------|-------------------------------------------------|
    D|-------------------------------------------------|-------------------------------------------------|
    A|-------------------------------------------------|-------------------------------------------------|
    E|-------------------------------------------------|-------------------------------------------------|
     |                                                 |                                                 |
BassG|-------------------------------------------------|-------------------------------------------------|
    D|-------------------------------------------------|-------------------------6-----------6-----------|
    A|-5-----------5-----------5-----------5-----------|-7-----------7-----------------------------------|
    E|-------------------------------------------------|-------------------------------------------------|
 
Gtr.E|-20p17----17-20p17---17-20p17---17-20p17---17-20p17----17-|-20p17---17-20p17---17-20p17--17-20p17----17------/20bend|
    H|-------20---------20---------20---------20----------20----|-------20--------20---------20---------20------ sl. -----|
    G|-------------------------------------------------|-------------------------------------------------|
    D|-------------------------------------------------|-------------------------------------------------|
    A|-------------------------------------------------|-------------------------------------------------|
    E|-------------------------------------------------|-------------------------------------------------|
     |                                                 |                                                 |
BassG|-------------------------------------------------|-------------------------------------------------|
    D|-------------------------------------------------|-------------------------------------------------|
    A|-------------------------------------------------|-8-----------8-----------8-----------8-----------|
    E|-5-----------5-----------5-----------5-----------|-------------------------------------------------|
 
Gtr.E|(20)b22---20p17----------17----------------------|-------------------------------------------------|
    H|-------------------20-------------20p17----------|--------17----------17---------------------------|
    G|-------------------------------------------19----|-19b21-------19b21-------19bend21~~~~~~~~~~------|
    D|-------------------------------------------------|-------------------------------------------------|
    A|-------------------------------------------------|-------------------------------------------------|
    E|-------------------------------------------------|-------------------------------------------------|
     |                                                 |                                                 |
BassG|-------------------------------------------------|-------------------------------------------------|
    D|-------------------------------------------------|-------------------------------------------------|
    A|-5-----------5-----------5-----------5-----------|-7-----------7-----------7-----------7-----------|
    E|-------------------------------------------------|-------------------------------------------------|

(4:08 - 4:31) CHORUS

(4:31 - 4:50)

OUTRO:
       4.--------------------------------------------------------------------------------------------------->
Gtr.1E|-------------------------|-------------------------|-------------------------|-------------------------|
Gtr.2H|-------------------------|-------------------------|-------------------------|-------------------------|
     G|-------------------------|-------------------------|-9--------10-------9-----|(9)-7----5\4-------------|
     D|-6--------7--------6-----|(6)-7--------9-----10----|-------------------------|-------------2-----------|
     A|-7--------8--------7-----|(7)-8--------11----12----|-7--------8--------7-----|(7)-5--------2-----------|
     E|-------------------------|-------------------------|-------------------------|-------------0-----------|


Gtr.1E|-------------------------|--------------------------------|
Gtr.2H|-------------------------|--------------------------------|
     G|-------------------------|--------------------------------|
     D|-(2)---------------------|-(2)----------------------------|
     A|-(2)---------------------|-(2)----------------------------|
     E|-(0)---------------------|-(0)----------------------------|

 






                       


Copyright © Музыкальный Портал на Куличках 1999-2007      music@kulichki.com


    Stolica.ru    
Реклама в Интернет