Stolica.ru Реклама на Куличках     

Аккорды песен:
A B C D E F G H I J K L M N O P Q R S T U V W X Y Z
АБВГДЕЖЗИКЛМНОПРСТУФХЦЧШЩЭЮЯ





Тексты песен :     A B C D E F G H I J K L M N O P Q R S T U V W X Y Z #

ПОЛНЫЙ СПИСОК ПЕСЕН ГРУППЫ




-->



АРИЯ   

Мертвая зона
------------
tabbed by Vladimir Gelfand ("Little Prince")


Tempo: 83 quarternotes per minute
INTRO:
(0:01 - 0:12)
RIFF 1:
Gtr.1E|--------------------------------|---------------------------------|
     H|--------------------------------|---------------------------------|
     G|--------------------------------|-9-------------------------------|
     D|--9-----------------------------|-9-------------------------------|
     A|--9------10---9---8-------------|-7--------9---7----------9-------|
     E|--7-----------------------------|------------------9--------------|

Gtr.1E|--------------------------------|---------------------------------|
     H|--------------------------------|---------------------------------|
     G|--------------------------------|-9-------------------------------|
     D|--9-----------------------------|-9-------------------------------|
     A|--9------10---9---8-------------|-7--------9---7---9--------------|
     E|--7-----------------------------|---------------------------------|

(0:13 - 0:23)

RIFF 1': (another guitar adds the higher harmonic)

Gtr.1E|--------------------------------|---------------------------------|
     H|--------------------------------|---------------------------------|
     G|--------------------------------|-9-------------------------------|
     D|--9-----------------------------|-9-------------------------------|
     A|--9------10---9---8-------------|-7--------9---7----------9-------|
     E|--7-----------------------------|------------------9--------------|
      |                                |                                 |
Gtr.2E|--------------------------------|---------------------------------|
     H|--------------------------------|---------------------------------|
     G|---------12--11--10-------------|-9--------11--9---------11-------|
     D|--9-----------------------------|-----------------11--------------|
     A|--------------------------------|---------------------------------|
     E|--------------------------------|---------------------------------|
 
Gtr.1E|--------------------------------|---------------------------------|-- 2/4 measure -|
     H|--------------------------------|---------------------------------|----------------|
     G|--------------------------------|-9-------------------------------|----------------|
     D|--9-----------------------------|-9-------------------------------|----------------|
     A|--9------10---9---8-------------|-7--------9---7---9--------------|-(9)------------|
     E|--7-----------------------------|---------------------------------|----------------|
      |                                |                                 |                |
Gtr.2E|--------------------------------|---------------------------------|----------------|
     H|--------------------------------|---------------------------------|----------------|
     G|---------12--11--10-------------|-9--------11--9--11--------------|-(11)-----------|
     D|--9-----------------------------|---------------------------------|----------------|
     A|--------------------------------|---------------------------------|----------------|
     E|--------------------------------|---------------------------------|----------------|

(0:26 - 0:50)

RIFF 2:

Gtr.E|----------------------------------|---------------------------------|
+   H|----------------------------------|---------------------------------|
BassG|----------------------------------|-----------------4-----4---------|
    D|--9-----9---------7-----7---------|-5-----5---------4-----4---------|
    A|--9-----9---------7-----7---------|-5-----5---------2-2-2-2---------|
    E|--7-7-7-7---------5-5-5-5---------|-3-3-3-3-------------------------|
 
Gtr.E|----------------------------------|---------------------------------|
    H|----------------------------------|---------------------------------|
    G|------------------7-----6---------|-4~~~~~~~~---------4-7-----6-9---|
    D|--5---------------------------7---|-----------------5-------7-------|
    A|--5-------------------------------|---------------------------------|
    E|--3-------------------------------|---------------------------------|
     |                                  |                                 |
BassG|----------------------------------|---------------------------------|
    D|----------------------------------|---------------------------------|
    A|------------------5-----4---------|---------------------------------|
    E|--3---3-3-3---3---------------5---|-7---7-7-7---7---3-3-3---5-5-5---|
 
Gtr.E|----------------------------------|---------------------------------|
+   H|----------------------------------|---------------------------------|
BassG|----------------------------------|-----------------4-----4---------|
    D|--9-----9---------7-----7---------|-5-----5---------4-----4---------|
    A|--9-----9---------7-----7---------|-5-----5---------2-2-2-2---------|
    E|--7-7-7-7---------5-5-5-5---------|-3-3-3-3-------------------------|
 
Gtr.E|----------------------------------|---------------------------------|
    H|------------------5-----------5---|-7-------------------------------|
    G|------------------------7---------|---------------------------------|
    D|--5-------------------------------|---------------------------------|
    A|--5-------------------------------|---------------------------------|
    E|--3-------------------------------|---------------------------------|
     |                                  |                                 |
BassG|----------------------------------|---------------------------------|
    D|----------------------------------|---------------------------------|
    A|------------------7-----5-----7---|-9---9-9-9---9---9-9-9---5-5-5---|
    E|--3---3-3-3---3-------------------|---------------------------------|

(0:50 - 1:36)

VERSE 1:

   Mne     ni - kogda      ne  voy - ti   v  e - tot sa - a - ad,  v 
E|----------------------------------|---------------------------------|
H|----------------------------------|---------------------------------|
G|----------------------------------|-----------------4-----4---------|
D|--9-----9---------7-----7---------|-5-----5---------4-----4---------|
A|--9-----9---------7-----7---------|-5-----5---------2-2-2-2---------|
E|--7-7-7-7---------5-5-5-5---------|-3-3-3-3-------------------------|

  nyom   net   tzvetov  dlya   me - nya.
E|----------------------------------|---------------------------------|
H|----------------------------------|---------------------------------|
G|------------------7-----6---------|-4~~~~~~~~---------4-7-----6-9---|
D|--5---------------------------7---|-----------------5-------7-------|
A|--5-------------------------------|---------------------------------|
E|--3-------------------------------|---------------------------------|

   Ya    ne - na - vizhu    shty - ki              ograd, 
E|----------------------------------|---------------------------------|
H|----------------------------------|---------------------------------|
G|----------------------------------|-----------------4-----4---------|
D|--9-----9---------7-----7---------|-5-----5---------4-----4---------|
A|--9-----9---------7-----7---------|-5-----5---------2-2-2-2---------|
E|--7-7-7-7---------5-5-5-5---------|-3-3-3-3-------------------------|

 byush - chih v splete  -  ni - e   dnya.
E|----------------------------------|---------------------------------|
H|----------------------------------|---------------------------------|
G|----------------------------------|------- this stuff on bass ------|
D|--5-------------------------------|-----------------4-4-4-----------|
A|--5---------------7-----5-----7---|-4---4-4-4---4-----------5-5-5---|
E|--3-------------------------------|---------------------------------|

 Mne     ne hva - ta - et     v   zakry - tyh      sada - a - ah
E|----------------------------------|---------------------------------|
H|----------------------------------|---------------------------------|
G|----------------------------------|-----------------4-----4---------|
D|--9-----9---------7-----7---------|-5-----5---------4-----4---------|
A|--9-----9---------7-----7---------|-5-----5---------2-2-2-2---------|
E|--7-7-7-7---------5-5-5-5---------|-3-3-3-3-------------------------|

   voz - duha,    rvush - che - go  plot'.
E|----------------------------------|---------------------------------|
H|----------------------------------|---------------------------------|
G|------------------7-----6---------|-4~~~~~~~~---------4-7-----6-9---|
D|--5---------------------------7---|-----------------5-------7-------|
A|--5-------------------------------|---------------------------------|
E|--3-------------------------------|---------------------------------|

  Kto    slab   dusho - yu,   spe - shit         syuda,        ne  v
E|----------------------------------|---------------------------------|
H|----------------------------------|---------------------------------|
G|----------------------------------|-----------------4-----4---------|
D|--9-----9---------7-----7---------|-5-----5---------4-----4---------|
A|--9-----9---------7-----7---------|-5-----5---------2-2-2-2---------|
E|--7-7-7-7---------5-5-5-5---------|-3-3-3-3-------------------------|

   si - lah   se - bya   po - bo - ro - ot',  net...
E|----------------------------------|---------------------------------|
H|------------------5-----------5---|-7-------------------------------|
G|------------------------7---------|---------------------------------|
D|--5-------------------------------|---------------------------------|
A|--5-------------------------------|---------------------------------|
E|--3-------------------------------|---------------------------------|

(1:36 - 1:59)

CHORUS:

VoiceE|-------------------------------------------------------------------|
     H|-------------------------------------------------------------------|
     G|-------------------------------------------------------------------|
     D|--5--------------4---------5------4------2----------4------5-------|
     A|-------------------------------------------------------------------|
     E|- Sad           ne       pri  -  du  -  man       mno  -  yu,      |
      |                                 |                                 |
Gtr. E|---------------------------------|---------------------------------|
     H|---------------------------------|---------------------------------|
     G|---------------------------------|---------------------------------|
     D|-5-5-5-5-5-5-5-5-4-4-4-4-4-4-4-4-|-2-2-2-2-2-2-2-2-2-2-2-2-4-4-4-4-|
     A|---------------------------------|---------------------------------|
     E|---------------------------------|---------------------------------|
 
VoiceE|-------------------------------------------------------------------|
     H|-------------------------------------------------------------------|
     G|-------------------------------------------------------------------|
     D|--5--------------4-----------5-----7-5------4----2-----------------|
     A|-------------------------------------------------------------------|
     E|- oooooooooo  -  on         re  -  alen    kak  ty ----------------|
      |                                 |                                 |
Gtr. E|---------------------------------|---------------------------------|
     H|---------------------------------|---------------------------------|
     G|---------------------------------|---------------------------------|
     D|-5-5-5-5-5-5-5-5-4-4-4-4-4-4-4-4-|-2-2-2-2-2-2-2-2-2-2-2-2-4-4-4-4-|
     A|---------------------------------|---------------------------------|
     E|---------------------------------|---------------------------------|
 
VoiceE|-------------------------------------------------------------------|
     H|-------------------------------------------------------------------|
     G|-------------------------------------------------------------------|
     D|--5--------------4--------5-------4-----------2----4-----5---------|
     A|-------------------------------------------------------------------|
     E| No             ty        i  -  dyosh'      spo - koy - no      v  |
      |                                 |                                 |
Gtr. E|---------------------------------|---------------------------------|
     H|---------------------------------|---------------------------------|
     G|---------------------------------|---------------------------------|
     D|-5-5-5-5-5-5-5-5-4-4-4-4-4-4-4-4-|-2-2-2-2-2-2-2-2-2-2-2-2-4-4-4-4-|
     A|---------------------------------|---------------------------------|
     E|---------------------------------|---------------------------------|
 
VoiceE|-------------------------------------------------------------------|
     H|-------------------------------------------------------------------|
     G|-------------------------------------------------------------------|
     D|--4----5----4---2-------------------4---5---4---2------------------|
     A|----------------------5---4-----------------------------5---4------|
     E| sad  pus -to- ty  -  y - y,        o - o - o - o   -   o - o...  -|
      |                                 |                                 |
Gtr. E|---------------------------------|---------------------------------|
     H|---------------------------------|---------------------------------|
     G|--11--12--11---9-----------------|---------------------------------|
     D|---------------------12--11------|---------------------------------|
     A|---------------------------------|--9--10---9---7------------------|
     E|---------------------------------|---------------------10---9------|

(1:59 - 2:22) RIFF 2

(2:23 - 3:09) VERSE 2

(3:09 - 3:32) CHORUS

(3:32 - 3:44)

BassG|--4---4---4---4---4---4---4---4---|-4---4---4---4---4---4---4---4---|
    D|----4---4---4---4---4---4---4---4-|---4---4---4---4---4---4---4---4-|
    A|----------------------------------|---------------------------------|
    E|----------------------------------|---------------------------------|


BassG|--4---4---4---4---4---4---4---4---|-4---4---4---4---4---4---4---4---|
    D|----4---4---4---4---4---4---4---4-|---4---4---4---4---4---4---4---4-|
    A|----------------------------------|---------------------------------|
    E|----------------------------------|---------------------------------|

SOLO:

(3:44 - 4:31)

Part A: (*2 times; second time articulate the chords w/volume knob)

Gtr.E||---------------------------------|---------------------------------|
    H||-7-------------------------------|-6-------------------------------|
    G||-7-------------------------------|-7-------------------------------|
    D||-9-------------------------------|-9-------------------------------|
    A||---------------------------------|---------------------------------|
    E||---------------------------------|---------------------------------|
     ||                                 |                                 |
BassG||-4---4---4---4---4---4---4---4---|-4---4---4---4---4---4---4---4---|
    D||---4---4---4---4---4---4---4---4-|---4---4---4---4---4---4---4---4-|
    A||---------------------------------|---------------------------------|
    E||---------------------------------|---------------------------------|
 
Gtr.E|----------------------------------|---------------------------------|
    H|--5-------------------------------|-4-------------------------------|
    G|--4-------------------------------|-4-------------------------------|
    D|--4-------------------------------|-4-------------------------------|
    A|----------------------------------|---------------------------------|
    E|----------------------------------|---------------------------------|
     |                                  |                                 |
BassG|--4---4---4---4---4---4---4---4---|-4---4---4---4---4---4---------2-|
    D|----4---4---4---4---4---4---4---4-|---4---4---4---4---4-----4-2-4---|
    A|----------------------------------|-----------------------2---------|
    E|----------------------------------|---------------------------------|
 

Gtr.E|----------------------------------|---------------------------------|
    H|--3-------------------------------|-2-------------------------------|
    G|--4-------------------------------|-4-------------------------------|
    D|--4-------------------------------|-3-------------------------------|
    A|--2-------------------------------|-2-------------------------------|
    E|----------------------------------|---------------------------------|
     |                                  |                                 |
BassG|--4---4---4---4---4---4---4---4---|-4---4---4---4---4---4---4---4---|
    D|----4---4---4---4---4---4---4---4-|---4---4---4---4---4---4---4---4-|
    A|----------------------------------|---------------------------------|
    E|----------------------------------|---------------------------------|
 

Gtr.E|----------------------------------|-0-------------------------------||
    H|--5-------------------------------|-2-------------------------------||
    G|--4-------------------------------|-3-------------------------------||
    D|--4-------------------------------|-4-------------------------------||
    A|--2-------------------------------|---------------------------------||
    E|----------------------------------|---------------------------------||
     |                                  |                                 ||
BassG|--4---4---4---4---4---4---4---4---|---------------------------------||
    D|----4---4---4---4---4---4---4---4-|-4---4---4---4---4---4---4---4---||
    A|----------------------------------|---4---4---4---4---4---4---4---4-||
    E|----------------------------------|---------------------------------||

(4:31 - 4:54)

Part B:

Gtr.E|----------------------------------|---------------------------------|
    H|----------------------------------|---------------------------------|
    G|----------4-7-7-4-7---------------|-------4b5r4p2---2-4-2-------------|
    D|----------------------------------|-----0-------3-------3-----------|
    A|----------------------------------|---------------------------------|
    E|----------------------------------|---------------------------------|

Gtr.E|----------------------------------|---------------------------------|
    H|--------5-------------------------|---------------------------------|
    G|------2---4-----------------------|-(4)-----------------------------|
    D|--0-3-----------------------------|---------------------------------|
    A|----------------------------------|---------------------------------|
    E|----------------------------------|---------------------------------|

Gtr.E|----------------------------------|---------------------------------|
    H|--3~~~~~~~~~~~~~~~~~~~~~~----3-bend-5-release-3---------------------|
    G|--4~~~~~~~~~~~~~~~~~~~~~~---------|--------------2------------------|
    D|----------------------------------|---------------------------------|
    A|----------------------------------|---------------------------------|
    E|----------------------------------|---------------------------------|

Gtr.E|----------------------------------|---------------------------------|
    H|--------5-------------------------|---------------------------------|
    G|------2---4---------------6---4---|-3-------------------------------|
    D|--0-3-----------------------------|---------------------------------|
    A|----------------------------------|---------------------------------|
    E|----------------------------------|---------------------------------|

(4:54 - 5:05)

INTERLUDE:

  Tam est vsyo,tolko net dushi.       Vmesto rosy belyy zhemchug drozhit
E|-----------------------------------|--------------------------------------|
H|-----------------------------------|--------------------------------------|
G|--4-----------------3--------------|--------------------------------------|
D|--4-----------------3--------------|--2-----------------4-----------------|
A|--2-----------------1--------------|--2-----------------5-----------------|
E|-----------------------------------|--0-----------------7-----------------|

   Robot ptitz  voskovyh storozhit.    Sad vsem diktuyet zako - ny.
E|-----------------------------------|--------------------------------------|
H|-----------------------------------|--------------------------------------|
G|--4-----------------3--------------|--------------------------------------|
D|--4-----------------3--------------|--2-----------------4-----------------|
A|--2-----------------1--------------|--2-----------------4-----------------|
E|-----------------------------------|--0-----------------2-----------------|

(5:06 - 5:17) RIFF 1:

E|--------------------------------|---------------------------------|
H|--------------------------------|---------------------------------|
G|--------------------------------|-9-------------------------------|
D|--9-----------------------------|-9-------------------------------|
A|--9------10---9---8-------------|-7--------9---7----------9-------|
E|--7-----------------------------|------------------9--------------|

E|--------------------------------|---------------------------------|
H|--------------------------------|---------------------------------|
G|--------------------------------|-9-------------------------------|
D|--9-----------------------------|-9-------------------------------|
A|--9------10---9---8-------------|-7--------9---7---9--------------|
E|--7-----------------------------|---------------------------------|

(5:17 - 5:28) RIFF 1':

Gtr.1E|--------------------------------|---------------------------------|
     H|--------------------------------|---------------------------------|
     G|--------------------------------|-9-------------------------------|
     D|--9-----------------------------|-9-------------------------------|
     A|--9------10---9---8-------------|-7--------9---7----------9-------|
     E|--7-----------------------------|------------------9--------------|
      |                                |                                 |
Gtr.2E|--------------------------------|---------------------------------|
     H|--------------------------------|---------------------------------|
     G|---------12--11--10-------------|-9--------11--9---------11-------|
     D|--9-----------------------------|-----------------11--------------|
     A|--------------------------------|---------------------------------|
     E|--------------------------------|---------------------------------|
 
Gtr.1E|--------------------------------|---------------------------------|
     H|--------------------------------|---------------------------------|
     G|--------------------------------|-9-------------------------------|
     D|--9-----------------------------|-9-------------------------------|
     A|--9------10---9---8-------------|-7--------9---7---9--------------|
     E|--7-----------------------------|---------------------------------|
      |                                |                                 |
Gtr.2E|--------------------------------|---------------------------------|
     H|--------------------------------|---------------------------------|
     G|---------12--11--10-------------|-9--------11--9--11--------------|
     D|--9-----------------------------|---------------------------------|
     A|--------------------------------|---------------------------------|
     E|--------------------------------|---------------------------------|

(5:28 - 5:41) Continue INTERLUDE:

  Dumat' o buduschem  netu prichin.   Proshlaya zhizn pod kontrolem mashin   
E|------------------------------------|--------------------------------------|
H|------------------------------------|--------------------------------------|
G|--4------------------3--------------|--------------------------------------|
D|--4------------------3--------------|--2-------------------4---------------|
A|--2------------------1--------------|--2-------------------5---------------|
E|------------------------------------|--0-------------------7---------------|

   Ty vyhodish'  iz  sada zhivym, no v serdtze  -  myortvaya zo - na.
E|------------------------------------|--------------------------------------|-- 2/4 measure ----------|
H|------------------------------------|--------------------------------------|-------------------------|
G|--4------------------3--------------|--------------------------------------|-------------------------|
D|--4------------------3--------------|--2-------------------4---------------|-4--5--4-----------------|
A|--2------------------1--------------|--2-------------------4---------------|----------7--5--4--------|
E|------------------------------------|--0-------------------2---------------|-------------------7--5--|

(5:42 - 5:52)

BRIDGE:

VoiceE|--------------------------------------------------------------------|
     H|--------------------------------------------------------------------|
     G|--------------------------------------------------------------------|
     D|--------------------------------------------------------------------|
     A|---5---------7----4-----------5----7---7-7-7---9---7-5---4----------|
     E|-Proch'     be - gi,         po - ka hvatayet sil begi - i    ------|
      |                                  |                                 |
Gtr. E|----------------------------------|---------------------------------|
     H|--------------5-------------------|-------------7-------------------|
     G|--7---------------6-----------7---|-9---------------6---------------|
     D|--7---------------7---------------|-9---------------7---------------|
     A|--5---------------7---------------|-7---------------7---------------|
     E|------------------5---------------|-----------------5---------------|
 
VoiceE|--------------------------------------------------------------------|
     H|--------------------------------------------------------------------|
     G|--------------------------------------------------------------------|
     D|--------------------------------------------------------------------|
     A|---5----------7---4-------2----0-2---2---5---2---4------------------|
     E|- Na         vos-hod,  v sad zhivo - o - o - o - oy   --------------|
      |                                  |                                 |
Gtr. E|----------------------------------|---------------------------------|
     H|--------------5-------------------|---------------------------------|
     G|--7---------------6-----------7---|-4-----------6/7\6---------------|
     D|--7---------------7---------------|-4-----------6/7\6---------------|
     A|--5---------------7---------------|-2-----------4/5\4---------------|
     E|------------------5---------------|---------------------------------|

(5:53 - 6:04) Repeat BRIDGE

(6:04 - 6:22)

BRIDGE 1:
   Proch'    be - gi,         po - ka hvatayet sil begi
E|--------------------------------|---------------------------------|
H|--------------5-----------------|----------------7----------------|
G|--7--------------6------------7-|--9----------------6-------------|
D|--7--------------7--------------|--9----------------7-------------|
A|--5--------------7--------------|--7----------------7-------------|
E|-----------------5--------------|-------------------5-------------|

   Na         vos-hod,  v sad zhivo - o - o - o - o  -  o - oy
E|--------------------------------|---------------------------------|
H|--------------5-----------------|---------------------------------|
G|--7--------------6--------------|--11--12--11---9-----------------|
D|--7--------------7--------------|---------------------12--11------|
A|--5--------------7--------------|---------------------------------|
E|-----------------5--------------|---------------------------------|

E|--------------------------------|---------------------------------|
H|--------------------------------|-------------- ritenuto ---------|
G|--11--12--11---9----------------|---------------------------------|
D|---------------------12--11-----|---------------------------------|
A|--------------------------------|--9---10---9---7-----------------|
E|--------------------------------|---------------------10---9------|

(6:22 - 6:37)

OUTRO:
E|- H5 ------- free time -------------------------------------------|
H|----------------------------------4-7p4h7p4h7p4h7p4h7..-----------|
G|----------------------4---8---4-----------------------------------|
D|------------------4-----------------------------------------------|
A|--9-----------5---------------------------------------------------|
E|--7-------7-------------------------------------------------------|

 






                       


Copyright © Музыкальный Портал на Куличках 1999-2007      music@kulichki.com


    Stolica.ru    
Реклама в Интернет