Stolica.ru Реклама на Куличках     

Аккорды песен:
A B C D E F G H I J K L M N O P Q R S T U V W X Y Z
АБВГДЕЖЗИКЛМНОПРСТУФХЦЧШЩЭЮЯ





Тексты песен :     A B C D E F G H I J K L M N O P Q R S T U V W X Y Z #

ПОЛНЫЙ СПИСОК ПЕСЕН ГРУППЫ




-->



АРИЯ   

На службе силе зла
------------------
tabbed by Vladimir Gelfand ("Little Prince")


(0:01 - 1:15) the piece from "Santa Lucia"


Tempo: moderately (116 bpm)


(1:16 - 1:31)


INTRO:
RIFF 1:
E|-------------------------------------------------|-------------------------------------------------|
H|-12p0--12p0--12p0--12p0--12p0--12p0--13-12-10----|-12p0--12p0--12p0--12p0--12p0--12p0--13-12-10----|
G|----------------------------------------------12-|----------------------------------------------12-|
D|-------------------------------------------------|-------------------------------------------------|
A|-------------------------------------------------|-------------------------------------------------|
E|-------------------------------------------------|-------------------------------------------------|


E|-------------------------------------------------|-------------------------------------------------|
H|-10p0--10p0--10p0--10p0--8-p0--8-p0--10p0--10p0--|-12p0--12p0--12p0--12p0--------------------------|
G|-------------------------------------------------|------------------------12--11--9----9-----------|
D|-------------------------------------------------|----------------------------------12---12--10--9-|
A|-------------------------------------------------|-------------------------------------------------|
E|-------------------------------------------------|-------------------------------------------------|


E|-------------------------------------------------|-------------------------------------------------|
H|-12p0--12p0--12p0--12p0--12p0--12p0--13-12-10----|-12p0--12p0--12p0--12p0--12p0--12p0--13-12-10----|
G|----------------------------------------------12-|----------------------------------------------12-|
D|-------------------------------------------------|-------------------------------------------------|
A|-------------------------------------------------|-------------------------------------------------|
E|-------------------------------------------------|-------------------------------------------------|


E|-------------------------------------------------|-------------------------------------------------|
H|-10p0--10p0--10p0--10p0--8-p0--8-p0--10p0--10p0--|-12p0--12p0--12p0--12p0--------------------------|
G|-------------------------------------------------|------------------------12--11--9----9-----------|
D|-------------------------------------------------|----------------------------------12-------------|
A|-------------------------------------------------|-------------------------------------------------|
E|-------------------------------------------------|-------------------------------------------------|

(1:31 - 2:04)

VERSE 1:

       Tvoy   flag   podnyat vverh,   idyot  zhizn'   bez   pomeh  vpe -
Gtr. E|---------------------------------|---------------------------------|
+bassH|---------------------------------|---------------------------------|
     G|---------------------------------|---------------------------------|
     D|-7---------------------------7---|-7-------------------------------|
     A|-7---------------------------7---|-7-------------------------------|
     E|-5-5-5-5-5-5-5-5-5-5-5-5-5-5-5---|-5-5-5-5-5-5-5-5-5-5-5-5-5-5-5-5-|

       ryo      -       o    -    o - o - od!
Gtr. E|---------------------------------|---------------------------------|
+bassH|---------------------------------|---------------------------------|
     G|---------------------------------|-----------------5---4---5---4---|
     D|-5---------------4---------------|-2---------------5---4---5---4---|
     A|-5---------------4---------------|-2---------------3---2---3---2---|
     E|-3-3-3-3-3-3-3-3-2-2-2-2-3-3-5-5-|-0-0-0-0-0-0-0-0-----------------|

       Vsyo   vzyal,  chto hotel,    a   to,   chto   ne  uspel,  -  ne  v 
Gtr. E|---------------------------------|---------------------------------|
+bassH|---------------------------------|---------------------------------|
     G|---------------------------------|---------------------------------|
     D|-7---------------------------7---|-7-------------------------------|
     A|-7---------------------------7---|-7-------------------------------|
     E|-5-5-5-5-5-5-5-5-5-5-5-5-5-5-5---|-5-5-5-5-5-5-5-5-5-5-5-5-5-5-5-5-|

     schyo      -       o    -   o - o - ot.
Gtr. E|---------------------------------|---------------------------------|
+bassH|---------------------------------|---------------------------------|
     G|---------------------------------|-----------------5---4---5---4---|
     D|-5---------------4---------------|-2---------------5---4---5---4---|
     A|-5---------------4---------------|-2---------------3---2---3---2---|
     E|-3-3-3-3-3-3-3-3-2-2-2-2-3-3-5-5-|-0-0-0-0-0-0-0-0-----------------|

       Ty  -  kak   vse   vokrug,  vra - gam   vrag,   drugu  drug
Gtr. E|---------------------------------|---------------------------------|
+bassH|---------------------------------|---------------------------------|
     G|---------------------------------|---------------------------------|
     D|-5---------------------------5---|-5-------------------------------|
     A|-3-3-3-3-3-3-3-3-3-3-3-3-3-3-3---|-3-3-3-3-3-3-3-3-3-3-3-3-3-3-3-3-|
     E|---------------------------------|---------------------------------|

       No   lish'   pod  zemlyoy   sta - novish'sya    soboy.      Pod zem-
Gtr. E|---------------------------------|---------------------------------|
+bassH|---------------------------------|---------------------------------|
     G|---------------------------------|---------------------------------|
     D|-7---------------------------7---|-7-------------------------------|
     A|-5-5-5-5-5-5-5-5-5-5-5-5-5-5-5---|-5-5-5-5-5-5-5-5-5-5-5-5-5-5-5-5-|
     E|---------------------------------|---------------------------------|

      lyoy   skryt  bunker tvoy,   ty v nyom  ver - shish'  dela
Gtr. E|---------------------------------|---------------------------------|
+bassH|---------------------------------|---------------------------------|
     G|---------------------------------|---------------------------------|
     D|-5---------------------------5---|-5-------------------------------|
     A|-3-3-3-3-3-3-3-3-3-3-3-3-3-3-3---|-3-3-3-3-3-3-3-3-3-3-3-3-3-3-3-3-|
     E|---------------------------------|---------------------------------|

       Ty   -   na    sluzhbe   sily    zla       -       a   -   a!
Gtr. E|---------------------------------|---------------------------------|
+bassH|---------------------------------|---------------------------------|
     G|---------------------------------|---------------------------------|
     D|-7-------------------------------|-4---------------5-------7-------|
     A|-5-5-5-5-5-5-5-5-5-5-5-5-5-5-5-5-|-2-2-2-2-2-2-2-2-3-3-3-3-5-5-5-5-|
     E|---------------------------------|---------------------------------|

(2:04 - 2:36)

CHORUS:

VoiceE|-------------------------------------------------------------------|
     H|-------------------------------------------------------------------|
     G|-------------------------------------------------------------------|
     D|--9--------------5-----9-----------7-------------------------------|
     A|-------------------------------------------------------------------|
     E| Zna       -    ya     is    -    hod,    -------------------------|
      |                                 |                                 |
Gtr. E|---------------------------------|---------------------------------|
     H|---------------------------------|---------------------------------|
     G|-9-------------------------------|-7---------------7-------7---8---|
     D|-9-------------------------------|-7---------------7-------7---8---|
     A|-7-------------------------------|-5---------------5-------5---6---|
     E|---------------------------------|---------------------------------|
      |                                 |                                 |
Bass G|---------------------------------|---------------------------------|
     D|---------------------------------|---------------------------------|
     A|-7-7---7-7---7---7-7---7-7---7---|-5-5---5-5---5---5-5---5-5---6---|
     E|---------------------------------|---------------------------------|
 

VoiceE|-------------------------------------------------------------------|
     H|-------------------------------------------------------------------|
     G|-------------------------------------------------------------------|
     D|--9--------------5-------9--------7----------------------------7---|
     A|-------------------------------------------------------------------|
     E| ve      -      rish'  v se  -  bya.                         Tvoy  |
      |                                 |                                 |
Gtr. E|---------------------------------|---------------------------------|
     H|---------------------------------|-----------------8-------7h8p7---|
     G|-9-------------------------------|-7---------------7-------------7-|
     D|-9-------------------------------|-7-----------------------------7-|
     A|-7-------------------------------|-5-------------------------------|
     E|---------------------------------|---------------------------------|
      |                                 |                                 |
Bass G|---------------------------------|---------------------------------|
     D|---------------------------------|-----------------5-------4-------|
     A|-7-7---7-7---7---7-7---7-7---7---|-5-5---5-5---5---------------5---|
     E|---------------------------------|---------------------------------|
 

VoiceE|-------------------------------------------------------------------|
     H|-------------------------------------------------------------------|
     G|-------------------------------------------------------------------|
     D|--9--------------7-------5---------5-------------------------------|
     A|-------------------------------------------------------------------|
     E| dom             o   -  boy  -   dyot    --------------------------|
      |                                 |                                 |
Gtr. E|---------------------------------|---------------------------------|
     H|---------------------------------|---------------------------------|
     G|-5-------------------------------|---------------------------------|
     D|-5-------------------------------|-5---------------5-------5---6---|
     A|-3-------------------------------|-5---------------5-------5---6---|
     E|---------------------------------|-3---------------3-------3---4---|
      |                                 |                                 |
Bass G|---------------------------------|---------------------------------|
     D|---------------------------------|---------------------------------|
     A|-3-3---3-3---3---3-3---3-3---3---|---------------------------------|
     E|---------------------------------|-3-3---3-3---3---3-3---3-3---4---|
 

VoiceE|-------------------------------------------------------------------|
     H|-------------------------------------------------------------------|
     G|---------------------------------------------------5-------7-------|
     D|--7----------7--------------5------7-------9-----------------------|
     A|-------------------------------------------------------------------|
     E| cha   -   sha             si  -  ya   -   a   -   a   -   a.    --|
      |                                 |                                 |
Gtr. E|---------------------------------|---------------------------------|
     H|---------------------------------|---------------------------------|
     G|---------------------------------|---------------------------------|
     D|-7-------------------------------|---------------------------------|
     A|-7-------------------------------|---------------------------------|
     E|-5-------------------------------|---------------------------------|
      |                                 |                                 |
Bass G|---------------------------------|---------------------------------|
     D|---------------------------------|---------------------------------|
     A|---------------------------------|---------------------------5-5-5-|
     E|-5-5---5-5---5---5-5---5-5---5---|-3-5-5-5-5-7-7-7-7-8-8-8-8-------|
 
       To       -     chen     kak    shtyk, 
Gtr. E|---------------------------------|---------------------------------|
     H|---------------------------------|---------------------------------|
     G|-9-------------------------------|-7---------------7-------7---8---|
     D|-9-------------------------------|-7---------------7-------7---8---|
     A|-7-------------------------------|-5---------------5-------5---6---|
     E|---------------------------------|---------------------------------|
      |                                 |                                 |
Bass G|---------------------------------|---------------------------------|
     D|---------------------------------|---------------------------------|
     A|-7-7---7-7---7---7-7---7-7---7---|-5-5---5-5---5---5-5---5-5---6---|
     E|---------------------------------|---------------------------------|
 
       kak           shtyk    zhes   -   tok
Gtr. E|---------------------------------|---------------------------------|
     H|---------------------------------|-----------------8-------7h8p7---|
     G|-9-------------------------------|-7---------------7-------------7-|
     D|-9-------------------------------|-7-----------------------------7-|
     A|-7-------------------------------|-5-------------------------------|
     E|---------------------------------|---------------------------------|
      |                                 |                                 |
Bass G|---------------------------------|---------------------------------|
     D|---------------------------------|-----------------5-------4-------|
     A|-7-7---7-7---7---7-7---7-7---7---|-5-5---5-5---5---------------5---|
     E|---------------------------------|---------------------------------|
 
       mir          v   o   -  din      mig 
Gtr. E|---------------------------------|---------------------------------|
     H|---------------------------------|---------------------------------|
     G|-5-------------------------------|---------------------------------|
     D|-5-------------------------------|-5---------------5-------5---6---|
     A|-3-------------------------------|-5---------------5-------5---6---|
     E|---------------------------------|-3---------------3-------3---4---|
      |                                 |                                 |
Bass G|---------------------------------|---------------------------------|
     D|---------------------------------|---------------------------------|
     A|-3-3---3-3---3---3-3---3-3---3---|---------------------------------|
     E|---------------------------------|-3-3---3-3---3---3-3---3-3---4---|
 
       lya      -     zhet      u      nog.
Gtr. E|---------------------------------|---------------------------------|
     H|---------------------------------|---------------------------------|
     G|---------------------------------|---------------------------------|
     D|-7-------------------------------|---------------------------------|
     A|-7-------------------------------|---------------------------------|
     E|-5-------------------------------|---------------------------------|
      |                                 |                                 |
Bass G|---------------------------------|---------------------------------|
     D|---------------------------------|---------------------------------|
     A|---------------------------------|-------------------------5-------|
     E|-5-5---5-5---5---5-5---5-5---5---|-3-5-5-5-5-7-7-7-7-8-8-8---------|

(2:36 - 3:10) VERSE 2
(3:10 - 3:42) CHORUS
(3:43 - 3:57)

Measure changes to 7/8.

RIFF 2:
    A  -  aaaaaaaaaaaaaaaaaaaaaaaaaaaaaaaaaaaaaaaaaaaaaaa -
E|------------------------------|-----------------------------|
H|------------------------------|-----------------------------|
G|--6-6---6-6---6-6-6---6-6-6---|-----------------------------|
D|--4-4---4-4---4-4-4---4-4-4---|-7-7---7-7---7-7-7---7-7-7---|
A|------------------------------|-5-5---5-5---5-5-5---5-5-5---|
E|------------------------------|-----------------------------|

   - aaaaaaaaaaaaaaaaaaaaaaaaaaaaaaaaaaaaaaaaaaaaaaaaaaaa - 
E|------------------------------|-----------------------------|
H|------------------------------|-----------------------------|
G|--4-4---4-4---4-4-4---4-4-4---|-----------------------------|
D|--2-2---2-2---2-2-2---2-2-2---|-6-6---6-6---6-6-6---6-6-6---|
A|------------------------------|-4-4---4-4---4-4-4---4-4-4---|
E|------------------------------|-----------------------------|

    - aaaaaaaaaaaaaaaaaaa.....          Ha  -  ha  -  ha !!
E|------------------------------|-----------------------------|
H|------------------------------|-----------------------------|
G|--6-6---6-6---6-6-6---6-6-6---|-----------------------------|
D|--4-4---4-4---4-4-4---4-4-4---|-7-7---7-7---7-7-7---7-7-7---|
A|------------------------------|-5-5---5-5---5-5-5---5-5-5---|
E|------------------------------|-----------------------------|


E|------------------------------|-----------------------------|
H|------------------------------|-----------------------------|
G|--6-6---6-6---6-6-6---6-6-6---|-----------------------------|
D|--4-4---4-4---4-4-4---4-4-4---|-7-7---7-7---7-7-7---7-7-7---|
A|------------------------------|-5-5---5-5---5-5-5---5-5-5---|
E|------------------------------|-----------------------------|

(3:58 - 4:49)

Measure changes to normal 4/4

SOLO: (chords implied by bass)

    H5                                                        G5                          A5 
E|----------------------------------------------------------|------ A.H. ---14----------------------------------------|
H|--12bend14  ......... release-12~~~~~~~~------------------|-------<15>-----------15----15b17release15-p14-----------|
G|----------- hold ------------------------------11---------|-12-----------------------------------------------14-----|
D|----------- bend -----------------------------------------|---------------------------------------------------------|
A|----------------------------------------------------------|----- A.H. sounds ---------------------------------------|
E|----------------------------------------------------------|--- an octave higher ------------------------------------|

    H5                                                        C5                          D5 
E|---------------------------------------------------14-----|----------------------------15bend17~~~~~~~~~~~~~--------|
H|--12~~~~~~~~~~----------------12h14h15h17p15p14p12------------|-15~~~~~~~~~~~~------------------------------------------|
G|----------------------------------------------------------|---------------------------------------------------------|
D|----------------------------------------------------------|---------------------------------------------------------|
A|----------------------------------------------------------|---------------------------------------------------------|
E|----------------------------------------------------------|---------------------------------------------------------|

    H5                                                        G5                          A5 
E|--14-----15p14--------------------------------------------|-14--15-14p12p10----------------------------------------------------|
H|---------------17-15h17p15\14h15p14\12h14p12-\11--12~~~~~~~~~---|---------------12h14p12p10---\7-8-7-5-------------------------|
G|----------------------------------------------------------|-----------------------sl--------7-6-4h6p4h6p4----------4--|
D|----------------------------------------------------------|---------------------------------------------7----7------|
A|----------------------------------------------------------|---------------------------------------------------------|
E|----------------------------------------------------------|---------------------------------------------------------|

    H5                                                        C5                          D5 
E|-----------------------------------------------12-14-15p14p12----|-14~~~~~~~~~~~--------------17bend19~~~~~~~~~~-----------|
H|------5h7h8p7p5h7~~~~~~~~~-----------10-12-12-14-15----------------15-|----------------------17---------------------------------|
G|-4h6h7------------------------7-9-11----------------------------------|---------------------------------------------------------|
D|----------------------------------------------------------------|---------------------------------------------------------|
A|----------------------------------------------------------------|---------------------------------------------------------|
E|----------------------------------------------------------------|---------------------------------------------------------|

    H5                                                        G5                          A5 
E|--\7----<7>-------------- { ARTICULATE THE HARMONIC WITH THE TREMOLO BAR } -----------------------------------------|
H|----------------------------------------------------------|---------------------------------------------------------|
G|------- Harm. --------------------------------------------|---------------------------------------------------------|
D|----------------------------------------------------------|---------------------------------------------------------|
A|----------------------------------------------------------|---------------------------------------------------------|
E|----------------------------------------------------------|---------------------------------------------------------|

    H5                                                        C5                          D5 
E|----------------------------------------------------------|------7h10p7----7h10p7----------------<12>--------10-----|
H|--10bend12-----10b12rel10--8----------------------------sl-/8h10--------10--------10----------<12>----12-12p8--12p8-|
G|----------------------------------------------------------|----------------------------<12><12>---------------------|
D|----------------------------------------------------------|---------------------------------------------------------|
A|----------------------------------------------------------|---------------------------------------------------------|
E|----------------------------------------------------------|---------------------------------------------------------|

    H5                                                        G5                          A5 
E|--10bend12---10b12rel10-----------------------------------|----------------------------------------------------------------------------/17--|
H|--------------------------8~~~~~~~~~~~--------------------|----9h10h11h12p11p10h12----9h10h11h12p11p10-----9h10h11h12p11p10-----------------|
G|----------------------------------------------------------|-12---------------------12-------------------12------------------12--------------|
D|----------------------------------------------------------|---------------------------------------------------------------------------------|
A|----------------------------------------------------------|---------------------------------------------------------------------------------|
E|----------------------------------------------------------|---------------------------------------------------------------------------------|

    H5                                                        C5                           D5 
E|--19-19-20-20-17-17-19-19-15-15-17p15\14-14-15p14\12--12-14p12\10--10-12p10\8-|-(8)-10p8\7--7-8p7\5--5-7p5\3--3---5p3-\2---2---5pp3pp2--|
H|----------------------------------------------------------|---------------------------------------------------------|
G|----------------------------------------------------------|---------------------------------------------------------|
D|----------------------------------------------------------|---------------------------------------------------------|
A|----------------------------------------------------------|---------------------------------------------------------|
E|----------------------------------------------------------|---------------------------------------------------------|


E|--0-----------------------------------------------|-------------------------------------------------|
H|--------------------------  various pick  scrapes  -------------------------------------------------|
G|--------------------------------------------------|-------------------------------------------------|
D|--------------------------------------------------|-------------------------------------------------|
A|--------------------------------------------------|-------------------------------------------------|
E|--------------------------------------------------|-------------------------------------------------|


E|----------14--------------------------------------|-------------------------------------------------|
H|------------------12------------------------------|-------------------------------------------------|
G|--------------------------11--\\\\\\\\\\  press  tremolo  bar --------------------------------------|
D|--5-----------------------------------------------|-------------------------------------------------|
A|--5-----------------------------------------------|-------------------------------------------------|
E|--3-----------------------------------------------|-------------------------------------------------|


E|----------14--------------------------------------|-------------------------------------------------|
H|------------------12------------------------------|-------------------------------------------------|
G|--------------------------11--\\\\\\\\\\  press  tremolo  bar ///////// depress  tremolo  bar  -----|
D|--2-----------------------------------------------|-------------------------------------------------|
A|--2-----------------------------------------------|-------------------------------------------------|
E|--0-----------------------------------------------|-------------------------------------------------|


E|----------14--------------------------------------|-------------------------------------------------|
H|------------------12------------------------------|-------------------------------------------------|
G|--------------------------11--\\\\\\\\\\  press  tremolo  bar --------------------------------------|
D|--5-----------------------------------------------|-------------------------------------------------|
A|--5-----------------------------------------------|-------------------------------------------------|
E|--3-----------------------------------------------|-------------------------------------------------|

Tempo: slower (100 bpm)
(4:50 - 5:37)
INTERLUDE:

Gtr.1E|-------------------------------------------------|-------------------------------------------------|
Gtr.2H|-------------------------------------------------|-------------------------------------------------|
     G|-------------------------------------------5-----|-(5)---------------------------------------------|
     D|-------------------------------------------7-----|-(7)---------------------------------------------|
     A|-0-----0--0--0-----0--0--0-----0--0--0-----------|-------0--0--0-----0--0--0-----0--0--0-----0--0--|
     E|-------------------------------------------------|-------------------------------------------------|
 
                                                                                                    Ooo -
Gtr.1E|-------------------------------------------------|----------------------------------- A.H. --------|
Gtr.2H|-------------------------------------------------|-------------------------------------------------|
     G|-------------------------------------------------|------------------------------------<10>---9-----|
     D|-2-----------------------------------------------|-10----9h10p9p7----------7-----9-----------------|
     A|-2-----------------------------------------------|-------------------10----------------------------|
     E|-0-----0--0--0-----0--0--0-----0--0--0-----0--0--|-------------------------------------------------|
 
        ooooooooooooooooooooooooo  -  o  -  o  -  oooooooooo!              Ho - zya  -  in   torg   ve -  
Gtr.1E|-------------------------------------------------|-------------------------------------------------|
Gtr.2H|-------------------------------------------------|-------------------------------------------------|
     G|-(9)---------------------------------------5-----|-(5)---------------------------------------------|
     D|-------------------------------------------7-----|-(7)---------------------------------------------|
     A|-------0--0--0-----0--0--0-----0--0--0-----------|-------0--0--0-----0--0--0-----0--0--0-----0--0--|
     E|-------------------------------------------------|-------------------------------------------------|
 
       dyot.                                                                                        Ooo -
Gtr.1E|-------------------------------------------------|-------------------------------------------------|
Gtr.2H|-------------------------------------------------|-------------------------------------------------|
     G|-------------------------------------------------|-------------------------------------10----9-----|
     D|-------------------------------------------------|-10----9h10p9p7----------7-----9-----------------|
     A|-7-----7--7--7-----7--7--7-----7--7--7-----7--7--|-------------------10----------------------------|
     E|-------------------------------------------------|-------------------------------------------------|
 
         oooooooooooooooooooooooo  -  o  -  o  -  oooooooooo!              Du - sha    kak   noch'  cher -
Gtr.1E|-------------------------------------------------|-------------------------------------------------|
Gtr.2H|-------------------------------------------------|-------------------------------------------------|
     G|-(9)---------------------------------------5-----|-(5)---------------------------------------------|
     D|-------------------------------------------7-----|-(7)---------------------------------------------|
     A|-------0--0--0-----0--0--0-----0--0--0-----------|-------0--0--0-----0--0--0-----0--0--0-----0--0--|
     E|-------------------------------------------------|-------------------------------------------------|
 
        na.                                                                                         Ooo -
Gtr.1E|-------------------------------------------------|-------------------------------------------------|
Gtr.2H|-------------------------------------------------|-------------------------------------------------|
     G|-------------------------------------------------|-------------------------------------10----9-----|
     D|-------------------------------------------------|-10----9h10p9p7----------7-----9-----------------|
     A|-7-----7--7--7-----7--7--7-----7--7--7-----7--7--|-------------------10----------------------------|
     E|-------------------------------------------------|-------------------------------------------------|
 
         oooooooooooooooooooooooo  -  o  -  o  -  oooooooooo!               I   dya  - vol   ne    be -
Gtr.1E|-------------------------------------------------|-------------------------------------------------|
Gtr.2H|-------------------------------------------------|-------------------------------------------------|
     G|-(9)---------------------------------------5-----|-(5)---------------------------------------------|
     D|-------------------------------------------7-----|-(7)---------------------------------------------|
     A|-------0--0--0-----0--0--0-----0--0--0-----------|-------0--0--0-----0--0--0-----0--0--0-----0--0--|
     E|-------------------------------------------------|-------------------------------------------------|
 
        ryot.                                                              Ko  - mu     o  - na    nuzh -
Gtr.1E|-------------------------------------------------|-------------------------------------------------|
Gtr.2H|-------------------------------------------5-----|-(5)---------------------------------------------|
     G|-------------------------------------------5-----|-(5)---------------------------------------------|
     D|-------------------------------------------------|-------------------------------------------------|
     A|-3-----3--3--3-----3--3--3-----3--3--3-----------|-------3--3--3-----3--3--3-----3--3--3-----3--3--|
     E|-------------------------------------------------|-------------------------------------------------|
 
        na?        Ha  - ha  - ha  - ha  - ha  - ha  -  haaaaaaaaaaaaaaaaa! 
Gtr.1E|-------------------------------------------------|-------------------------------------------------|
Gtr.2H|-------------------------------------------------|-------------------------------------------------|
     G|-------------------------------------------7-----|-(7)---------------------------------------------|
     D|-------------------------------------------7-----|-(7)---------------------------------------------|
     A|-5-----5--5--5-----5--5--5-----5--5--5-----------|-------5--5--5-----5--5--5-----5--5--5-----5--5--|
     E|-------------------------------------------------|-------------------------------------------------|
 
Gtr.1E|-------------------------------------------------|-------------------------------------------------|
Gtr.2H|-------------------------------------------------|-------------------------------------------------|
     G|-------------------------------------------------|-------------------------------------------------|
     D|-------------------------------------------------|-------------------------------------------------|
     A|-5--5--5--5--5--5--5--5--5--5--5--5--5--5--5--5--|-2--2--2--2--2--2--2--2--3--3--3--3--5-----------|
     E|-------------------------------------------------|-------------------------------------------------|

Tempo: faster (116 bpm)

(5:38 - 6:12) VERSE 3
(6:12 - 6:45) CHORUS
(6:45 - 7:08)

RIFF 1':
E|-------------------------------------------------|-------------------------------------------------|
H|-12p0--12p0--12p0--12p0--12p0--12p0--13-12-10----|-12p0--12p0--12p0--12p0--12p0--12p0--13-12-10----|
G|----------------------------------------------12-|----------------------------------------------12-|
D|-------------------------------------------------|-------------------------------------------------|
A|-------------------------------------------------|-------------------------------------------------|
E|-------------------------------------------------|-------------------------------------------------|


E|-------------------------------------------------|-------------------------------------------------|
H|-10p0--10p0--10p0--10p0--8-p0--8-p0--10p0--10p0--|-12p0--12p0--12p0--12p0--------------------------|
G|-------------------------------------------------|------------------------12--11--9----9-----------|
D|-------------------------------------------------|----------------------------------12---12--10--9-|
A|-------------------------------------------------|-------------------------------------------------|
E|-------------------------------------------------|-------------------------------------------------|


E|-------------------------------------------------|-------------------------------------------------|
H|-12p0--12p0--12p0--12p0--12p0--12p0--13-12-10----|-12p0--12p0--12p0--12p0--12p0--12p0--13-12-10----|
G|----------------------------------------------12-|----------------------------------------------12-|
D|-------------------------------------------------|-------------------------------------------------|
A|-------------------------------------------------|-------------------------------------------------|
E|-------------------------------------------------|-------------------------------------------------|


E|-------------------------------------------------|-------------------------------------------------|
H|-10p0--10p0--10p0--10p0--8-p0--8-p0--10p0--10p0--|-12p0--12p0--12p0--12p0--------------------------|
G|-------------------------------------------------|------------------------12--11--9----9-----------|
D|-------------------------------------------------|----------------------------------12---12--10--9-|
A|-------------------------------------------------|-------------------------------------------------|
E|-------------------------------------------------|-------------------------------------------------|


E|------------------------------------------------|-------------------------------------------------|
H|------------------------------------------------|-------------------------------------------------|
G|--<12>-11-9----9----------12-11-9----9----------|-9-----------------------------------------------|
D|------------12---12-10-9----------12---12-10-9--|-9-----------------------------------------------|
A|------------------------------------------------|-------------------------------------------------|
E|------------------------------------------------|-------------------------------------------------|

 






                       


Copyright © Музыкальный Портал на Куличках 1999-2007      music@kulichki.com


    Stolica.ru    
Реклама в Интернет