Stolica.ru Реклама на Куличках     

Аккорды песен:
A B C D E F G H I J K L M N O P Q R S T U V W X Y Z
АБВГДЕЖЗИКЛМНОПРСТУФХЦЧШЩЭЮЯ





Тексты песен :     A B C D E F G H I J K L M N O P Q R S T U V W X Y Z #

ПОЛНЫЙ СПИСОК ПЕСЕН ГРУППЫ




-->



АРИЯ   

Икар
----
tabbed by Vladimir Gelfand ("Little Prince")

Tempo: fast (175 bpm)
(0:01 - 0:11)
RIFF 1: (play 4 times)
Gtr.E||--------------------------------|-------------------------------||
    H||--------------------------------|-------------------------------||
    G||--2----2---------2----2---------|-2----2---------2----2---------||
    D||--2----2---------2----2---------|-2----2---------2----2---------||
    A||----------0h3p0----------0h3p0--|---------0h3p0----------0h3p0--||
    E||--------------------------------|-------------------------------||
(0:11 - 0:22)
RIFF 2: (play 2 times)
Gtr.E||-------------------------------------|-------------------------------------|
    H||----5-p3--------------------------5--|-(5)---------------------------------|
    G||----------5-p4-p0--4-----5-----------|-------7-p5-p4-p0--4-----5-----------|
    D||-------------------------------------|-------------------------------------|
    A||-------------------------------------|-------------------------------------|
    E||-------------------------------------|-------------------------------------|
     ||                                     |                                     |
BassG||-------------------------------------|-------------------------------------|
    D||-------------------------------------|-------------------------------------|
    A||-------------------------------------|-------------------------------------|
    E||-3-h5--5--5--5--5--5--5--5--5--5--5--|-3-h5--5--5--5--5--5--5--5--5--5--5--|
 
Gtr.E|--------------------------------------|-------------------------------------||
    H|-----5-p3-----------------------------|-5-p3--------------------------------||
    G|-----------5-p4-p0--4-----5-----------|-------5-p4-p0--4--5-----------------||
    D|--------------------------------------|-------------------------------------||
    A|--------------------------------------|-------------------------------------||
    E|--------------------------------------|-------------------------------------||
     |                                      |                                     ||
BassG|--------------------------------------|-------------------------------------||
    D|--------------------------------------|----------5--5-----5-h7--------------||
    A|--------------------------------------|-------3--------3--------5-----------||
    E|--3-h5--5--5--5--5--5--5--5--5--5--5--|-3-h5--------------------------------||
(0:22 - 0:44)
RIFF 3:
E|----------------------------------|---------------------------------|
H|--5---------------5-----6-----8---|-6---------------5---------------|
G|----------------------------------|-----------------------7-----4---|
D|----------------------------------|---------------------------------|
A|----------------------------------|---------------------------------|
E|----------------------------------|---------------------------------|
E|----------------------------------|---------------------------------|
H|--6---------------5---------------|---------------------------------|
G|------------------------7-----4---|-4-h-5---------------------------|
D|----------------------------------|-------7-------------------------|
A|----------------------------------|---------------------------------|
E|----------------------------------|---------------------------------|
E|----------------------------------|---------------------------------|
H|--5---------------5-----6-----8---|-6---------------5---------------|
G|----------------------------------|-----------------------7-----4---|
D|----------------------------------|---------------------------------|
A|----------------------------------|---------------------------------|
E|----------------------------------|---------------------------------|
E|----------5--------------5--------|---------5-----------------------|
H|-------5-----8-p5-----5-----8-p5--|------5-----8-p5-----------------|
G|--7b9-------------7b9-------------|-7b9-------------8-p7-p5---------|
D|----------------------------------|-------------------------7-p5----|
A|----------------------------------|------------------------------7--|
E|----------------------------------|---------------------------------|
E|----------------------------------|---------------------------------|
H|--5---------------5-----6-----8---|-6---------------5---------------|
G|----------------------------------|-----------------------7-----4---|
D|----------------------------------|---------------------------------|
A|----------------------------------|---------------------------------|
E|----------------------------------|---------------------------------|
E|----------------------------------|---------------------------------|
H|--6---------------5---------------|---------------------------------|
G|------------------------7-----4---|-4-h-5---------------------------|
D|----------------------------------|-------7-------------------------|
A|----------------------------------|---------------------------------|
E|----------------------------------|---------------------------------|
E|----------------------------------|---------------------------------|
H|--5---------------5-----6-----8---|-6---------------5---------------|
G|----------------------------------|-----------------------7-----4---|
D|----------------------------------|---------------------------------|
A|----------------------------------|---------------------------------|
E|----------------------------------|---------------------------------|
E|--12p8----12p8----12p8----12p8----|-12p8----12p8----12--\\\---------|
H|-------10------10------10------10-|------10------10---- sl.down ----|
G|----------------------------------|---------------------------------|
D|----------------------------------|---------------------------------|
A|----------------------------------|---------------------------------|
E|----------------------------------|---------------------------------|
(0:44 - 1:06)
VERSE 1:
VoiceE|---------------------------------------------------|
     H|---------------------------------------------------|
     G|---------------------------------------------------|
     D|---------------------------------------------------| 
     A|-7--------------------------------------5----7---8-|
     E|-Kto   -   o                           vi - del  I |
      |                         |                         |
Gtr. E|-------------------------|-------------------------|
     H|-------------------------|-------------------------|
     G|-------------------------|-------------------------|
     D|-------------------------|-------------------------| 
     A|-------------------------|-------------------------|
     E|-5-5-5-5-5-5-5-5-5-5-5-5-|-3-3-3-3-3-3-3-3-3-3-3-3-|
 
VoiceE|---------------------------------------------------|
     H|---------------------------------------------------|
     G|---------------------------------------------------|
     D|---------------------------------------------------| 
     A|--7-------3----------------------------------------|
     E|-ka   -  ra  --------------------------------------|
      |                         |                         |
Gtr. E|-------------------------|-------------------------|
     H|-------------------------|-------------------------|
     G|-------------------------|-------------------------|
     D|-------------------------|-------------------------| 
     A|-3-3-3-3-3-3-3-3-3-3-3-3-|-3-----------5-----------|
     E|-------------------------|-1-----------3-----------|
 
VoiceE|---------------------------------------------------|
     H|---------------------------------------------------|
     G|---------------------------------------------------|
     D|---------------------------------------------------| 
     A|-7--------------------------------------8----7---5-|
     E|-Ta - am,                           v  si - ney da | 
      |                         |                         | 
Gtr. E|-------------------------|-------------------------|
     H|-------------------------|-------------------------|
     G|-------------------------|-------------------------|
     D|-------------------------|-------------------------| 
     A|-------------------------|-------------------------|
     E|-5-5-5-5-5-5-5-5-5-5-5-5-|-3-3-3-3-3-3-3-3-3-3-3-3-|
 
VoiceE|---------------------------------------------------|
     H|---------------------------------------------------|
     G|---------------------------------------------------|
     D|---------------------------------------------------| 
     A|--7------------------------------------------------|
     E|-li?  ---------------------------------------------|
      |                         |                         |
Gtr. E|-------------------------|-------------------------|
     H|-------------------------|-------------------------|
     G|-------------------------|-------9-----------------|
     D|-------------------------|-7--------7--6-----------| 
     A|-3-3-3-3-3-3-3-3-3-3-3-3-|-------------7-----------|
     E|-------------------------|-------------------------|
(1:06 - 1:21)
CHORUS:
      F5        D5     G5          E5
On letel nad gorami,  gordyy kak oryol
      F5      D5      G5
rassekaya spinoy oblaka.
      F5        D5     G5          E5
On letel nad gorami,  solntzem ozaryon,
      F5        D5      
i na zemlyu smotrel svyso -
        ka .....  
Gtr. E|-------------------------------------|--------------------------------|
     H|----10-12-13p12p10----13p12-13p12p10-|----10p9-10p9----9--------------|
     G|-13----------------------------------|--------------10---10-9-10-9----|
     D|-------------------------------------|-----------------------------12-|
     A|-------------------------------------|--------------------------------|
     E|-------------------------------------|--------------------------------|
 
Gtr. E|-------------------------------------|--------------------------------|
     H|-------------------------------------|--------------------------------|
     G|-------------------------------------|--------------------------------|
     D|-10----------------------------------|--------------------------------|
     A|-------------------------------------|--------------------------------|
     E|-------------------------------------|--------------------------------|
(1:21 - 1:42) VERSE 2
(1:42 - 1:57) CHORUS
(1:58 - 2:08) RIFF 2
(2:08 - 2:19)
RIFF 4: (play 2 times)
Gtr. E||------------------------------------|-------------------------------------|
     H||------------------------------------|-------------------------------------|
     G||------------------------------------|-------------------------------------|
     D||-7----------------------------------|-9-----------------------------------|
     A||-5----------------------------------|-7-----------------------------------|
     E||------------------------------------|-------------------------------------|
Gtr. E|-------------------------------------|-------------------------------------||
     H|-------------------------------------|-5-h6-p5-----------------------------||
     G|-------------------------------------|-------------7-----4-----------------||
     D|--7----------------------------------|-------------------------7-----5-----||
     A|--5----------------------------------|-------------------------------------||
     E|-------------------------------------|-------------------------------------||
(2:19 - 2:41) SOLO
Raise the key +2 and play the following RIFF 3, Verse and Chorus whole tone higher than before.
(2:41 - 3:03) RIFF 3
(3:03 - 3:25) VERSE 3
(3:25 - 3:39) CHORUS
then RIFF 3 & OUTRO



 






                       


Copyright © Музыкальный Портал на Куличках 1999-2007      music@kulichki.com


    Stolica.ru    
Реклама в Интернет