Stolica.ru Реклама на Куличках     

Аккорды песен:
A B C D E F G H I J K L M N O P Q R S T U V W X Y Z
АБВГДЕЖЗИКЛМНОПРСТУФХЦЧШЩЭЮЯ





Тексты песен :     A B C D E F G H I J K L M N O P Q R S T U V W X Y Z #

ПОЛНЫЙ СПИСОК ПЕСЕН ГРУППЫ




-->



АРИЯ   

Встань, страх преодолей
-----------------------
tabbed by Vladimir Gelfand ("Little Prince")

Tempo: 96 quarternotes per minute

(0:03 - 0:12)
RIFF 1 (play 2 times):
E||----------------------------------|---------------------------------||
H||----------------------------------|---------------------------------||
G||----------------------------------|---------------------------------||
D||----------------------------------|---------------------------------||
A||--5-5-5-5-5-5-5-5-5-5-5-5-7h8p7---|-5-5-5-5-5-5-5-5-5-5-5-5---------||
E||--------------------------------8-|-------------------------8---5---||
     > . . > . . > . . > . . >         > . . > . . > . . > . . >   >

(0:12 - 0:32)
VERSE 1:
VoiceE|--------------------------------------------------------------------|
     H|--------------------------------------------------------------------|
     G|--------------------------------------------------------------------|
     D|---3---3-3-----3----5----3-2--------3--3-3---3------5---------------|
     A|------------------------------5-------------------------------------|
     E|-Kto skazal chto strast' opasna,   dobrota smesh - na,  ------------|
      |                                  |                                 |
Gtr. E|----------------------------------|---------------------------------|
     H|----------------------------------|---------------------------------|
     G|----------------------------------|---------------------------------|
     D|----------------------------------|---------------------------------|
     A|--5-5-5-5-5-5-5-5-5-5-5-5-5-5-5---|\1-1-1-1-1-1-1-1-1-1-1-1-1-1-1---|
     E|----------------------------------|---------------------------------|
         > . . > . . > . > . . > . . >     > . . > . . > . > . . > . . >
 
VoiceE|--------------------------------------------------------------------|
     H|--------------------------------------------------------------------|
     G|--------------------------------------------------------------------|
     D|---2----2----2---2--3-2--2---2--------------------------------------|
     A|------------------------------------5-------------------------------|
     E|chto v nash vek  otvaga ne  nuzh - na?  ----------------------------|
      |                                  |                                 |
Gtr. E|----------------------------------|---------------------------------|
     H|----------------------------------|---------------------------------|
     G|----------------------------------|---------------------------------|
     D|----------------------------------|---------------------------------|
     A|-/3-3-3-3-3-3-3-------------------|-5-5-5-5-5-5-5-5-5-5-5-5-7h8p7---|
     E|-----------------/5-5-5-5-5-5-5---|-------------------------------8-|
         > . . > . . >   > . . > . . >     > . . > . . > . . > . . >
 
VoiceE|--------------------------------------------------------------------|
     H|--------------------------------------------------------------------|
     G|--------------------------------------------------------------------|
     D|--3--3----3---3----5--3---2---------3--3---3----3----5--------------|
     A|--------------------------------5-----------------------------------|
     E|-Kak i vstar' ot  vetra chas - to  rushitsya  ste - na -------------|
      |                                  |                                 |
Gtr. E|----------------------------------|---------------------------------|
     H|----------------------------------|---------------------------------|
     G|----------------------------------|---------------------------------|
     D|----------------------------------|---------------------------------|
     A|--5-5-5-5-5-5-5-5-5-5-5-5-5-5-5---|\1-1-1-1-1-1-1-1-1-1-1-1-1-1-1---|
     E|----------------------------------|---------------------------------|
         > . . > . . > . > . . > . . >     > . . > . . > . > . . > . . >
 
VoiceE|--------------------------------------------------------------------|
     H|--------------------------------------------------------------------|
     G|--------------------------------------------------------------------|
     D|--2---2--2-----2---3--2--2-----2------------------------------------|
     A|-----------------------------------5--------------------------------|
     E|Krepche bud' - i  burya ne  strashna.  -----------------------------|
      |                                  |                                 |
Gtr. E|----------------------------------|---------------------------------|
     H|----------------------------------|---------------------------------|
     G|----------------------------------|---------------------------------|
     D|----------------------------------|---------------------------------|
     A|-/3-3-3-3-3-3-3-------------------|-5-5-5-5-5-5-5-5-5-5-5-5-7-8-7-5-|
     E|-----------------/5-5-5-5-5-5-5---|---------------------------------|
         > . . > . . >   > . . > . . >     > . . > . . > . . > . > > > > >
(0:33 - 0:37)
RIFF 2:
E|----------------------------------|---------------------------------|
H|----------------------------------|-11--------------R---------------|
G|----------------------------------|-8---------------E---------------|
D|--8-------------------------5-7-8-|-----------------S---------------|
A|--8-------------------5-7-8-------|-----------------T---------------|
E|--6-----------0h5h6-8-------------|-------------------------8---5---|
(0:38 - 0:47) RIFF 1 (play 2 times)
(0:48 - 1:07)
VERSE 2:
   Kto skazal: "O - din ne vo - in,  ne velichi - na" ? 
E|----------------------------------|---------------------------------|
H|----------------------------------|---------------------------------|
G|----------------------------------|---------------------------------|
D|----------------------------------|---------------------------------|
A|--5-5-5-5-5-5-5-5-5-5-5-5-5-5-5---|\1-1-1-1-1-1-1-1-1-1-1-1-1-1-1---|
E|----------------------------------|---------------------------------|
    > . . > . . > . > . . > . . >     > . . > . . > . > . . > . . >
  Kto skazal: "Dru - giye vre - me - na" ? 
E|----------------------------------|---------------------------------|
H|----------------------------------|---------------------------------|
G|----------------------------------|---------------------------------|
D|----------------------------------|---------------------------------|
A|-/3-3-3-3-3-3-3-------------------|-5-5-5-5-5-5-5-5-5-5-5-5-7h8p7---|
E|-----------------/5-5-5-5-5-5-5---|-------------------------------8-|
    > . . > . . >   > . . > . . >     > . . > . . > . . > . . >
   Mir zhestok  i  nespoko - yen,    za volnoy vol - na,
E|----------------------------------|---------------------------------|
H|----------------------------------|---------------------------------|
G|----------------------------------|---------------------------------|
D|----------------------------------|---------------------------------|
A|--5-5-5-5-5-5-5-5-5-5-5-5-5-5-5---|\1-1-1-1-1-1-1-1-1-1-1-1-1-1-1---|
E|----------------------------------|---------------------------------|
    > . . > . . > . > . . > . . >     > . . > . . > . > . . > . . >
   Ne  robey - i   ne  sobyot  oo - na.
E|----------------------------------|---------------------------------|
H|----------------------------------|---------------------------------|
G|----------------------------------|---------------------------------|
D|----------------------------------|-------------------------3-2-0---|
A|-/3-3-3-3-3-3-3-------------------|-5-5-5-5-5-5-5-5-5-------------3-|
E|-----------------/5-5-5-5-5-5-5---|---------------------------------|
    > . . > . . >   > . . > . . >     . . . . . . . . >

(1:08 - 1:25)
CHORUS:
VoiceE|--------------------------------------------------------------------|
     H|--------------------------------------------------------------------|
     G|--------------------------------------------------------------------|
     D|--5-----------------------3-----5---7------3------------------------|
     A|----------------------------------------------5---------------------|
     E|Vstan',                strah  pre - o  -  doley!   -----------------|
      |                                  |                                 |
Gtr. E|----------------------------------|---------------------------------|
     H|----------------------------------|---------------------------------|
     G|----------------------------------|---------------------------------|
     D|----------------------------------|-----0-2-3-2-0-3---------3-2-0---|
     A|------------1-0---1---------------|-------------------------------3-|
     E|--3-------------3-----------------|---------------------------------|
 
VoiceE|--------------------------------------------------------------------|
     H|--------------------------------------------------------------------|
     G|--------------------------------------------------------------------|
     D|--5-----------------------3-----5----7------------------------------|
     A|--------------------------------------------------------------------|
     E|Vstan'                 v pol - nyy  rost!   ------------------------|
      |                                  |                                 |
Gtr. E|----------------------------------|---------------------------------|
     H|----------------------------------|---------------------------------|
     G|----------------------------------|---------------------------------|
     D|----------------------------------|---------3-2-0-3---------3-2-0---|
     A|------------1-0---1---------------|-------------------------------3-|
     E|--3-------------3-----------------|---------------------------------|
 
VoiceE|--------------------------------------------------------------------|
     H|--------------------------------------------------------------------|
     G|--------------------------------------------------------------------|
     D|--5-----------------------3-----5---7------3------------------------|
     A|------------------------------------------------5-------------------|
     E|Vstan'                   na  zem - le    svo - yey      ------------|
      |                                  |                                 |
Gtr. E|----------------------------------|---------------------------------|
     H|----------------------------------|---------------------------------|
     G|----------------------------------|---------------------------------|
     D|----------------------------------|-----0-2-3-2-0-3---------3-2-0---|
     A|------------1-0---1---------------|-------------------------------3-|
     E|--3-------------3-----------------|---------------------------------|
 
VoiceE|--------------------------------------------------------------------|
     H|--------------------------------------------------------------------|
     G|--------------------------------------------------------------------|
     D|---------2----------------------------------------------------------|
     A|-5----------5----3-1------0---------5-------------------------------|
     E|-i      dostan' rukoy    do      zvyozd.      ----------------------|
      |                                  |                                 |
Gtr. E|----------------------------------|-    >---  RIFF 1  --->     -----|
     H|----------------------------------|---------------------------------|
     G|----------------------------------|---------------------------------|
     D|----------------------------------|---------------------------------|
     A|--1-------------------------------|-5-5-5-5-5-5-5-5-5-5-5-5-7h8p7---|
     E|------------------3-------1-------| > . . > . . > . . > . . >  ---8-|
(1:25 - 1:35) RIFF 1 (play 2 times; this includes the half of the previous line)
(1:35 - 1:55) VERSE 3
(1:55 - 2:12) CHORUS
SOLO:
(2:13 - 2:32)
PART A:
E|-13-10----------10-13-10----------10-13-10----------10-13-10----------10-|-13-10----------10-13-10----------10-13-10----------10-13-10----------10-|
H|-------13-10-13----------13-10-13----------13-10-13----------13-10-13----|-------13-10-13----------13-10-13----------13-10-13----------13-10-13----|
G|-------------------------------------------------------|-------------------------------------------------------|
D|-------------------------------------------------------|-------------------------------------------------------|
A|-------------------------------------------------------|-------------------------------------------------------|
E|-------------------------------------------------------|-------------------------------------------------------|


E|-13-12-10-12-10----10----------------------------------------------------|-------------------------------------------------------------------------|
H|----------------13----13-11-13-11-10-11-10----10-------------------------|-------------------------------------------------------------------------|
G|-------------------------------------------12----12-10-12-10-9--10--9----|-9-----------------------------------------------------------------------|
D|----------------------------------------------------------------------12-|----12-10-12-10----10----------------------------------------------------|
A|-------------------------------------------------------------------------|----------------13----13-12-13-12-10-12-10----10-------------------------|
E|-------------------------------------------------------------------------|-------------------------------------------13----13-12-13-12-10-12-------|


E|--------------------------------------------------3----|-------------------------------------------------------|
H|------------------------------------------3h5h6--------|-------------------------------------------------------|
G|-----------------0--2--3----------0h2h3----------------|-3p2p0--5p3p0--7p5p0--9p7p0-10p9p0-12p10p0-14p12p0-15--|
D|--0--2--3-----------------0h2h3------------------------|-------------------------------------------------------|
A|-----------0--1----------------------------------------|-------------------------------------------------------|
E|-------------------------------------------------------|-------------------------------------------------------|


E|-------------------------------------------------------|-10----------------------------------------------------|
H|-------------------------------------------------------|----10-11---------------------------------8------------|
G|-<12>----------------------------7--9--10--9-----------|---------<12>-10h12p10h12p10-9-10-9-<12>-9--10-----7--9--10--|
D|------12------....-----------10------------------------|-------------------------------------------------------|
A|-------------------------------------------------------|-------------------------------------------------------|
E|-------------------------------------------------------|-------------------------------------------------------|


(2:33 - 3:03)
PART B: ( *6 times )
E||------------------------------------------------------|------------------------------------------------------||
H||-10-----8------------------10-----8-------------------|-10-----8------------------10-----8-------------------||
G||----10-----9--10--7--9--10----10-----9--10--7--9--10--|----10-----9--10--7--9--10----10-----9--10--7--9--10--||
D||------------------------------------------------------|------------------------------------------------------||
A||------------------------------------------------------|------------------------------------------------------||
E||------------------------------------------------------|------------------------------------------------------||


(3:03 - 3:07)
PART C:
E|----------------------------------|-------------------------C5--A5--|
H|----------------------------------|-11--------------R---------------|
G|--7-------------------------------|-8---------------E---------------|
D|--8-------------------------5-7-8-|-----------------S---------------|
A|--8-------------------5-7-8-------|-----------------T---------------|
E|--6-------------5-6-8-------------|-------------------------8---5---|


(3:08 - 3:17) RIFF 1 (play 2 times)
(3:18 - 3:37) VERSE 4
(3:38 - 3:55) CHORUS
(3:55 - 4:12) OUTRO

 






                       


Copyright © Музыкальный Портал на Куличках 1999-2007      music@kulichki.com


    Stolica.ru    
Реклама в Интернет