Stolica.ru Реклама на Куличках     

Аккорды песен:
A B C D E F G H I J K L M N O P Q R S T U V W X Y Z
АБВГДЕЖЗИКЛМНОПРСТУФХЦЧШЩЭЮЯ





Тексты песен :     A B C D E F G H I J K L M N O P Q R S T U V W X Y Z #

ПОЛНЫЙ СПИСОК ПЕСЕН ГРУППЫ




-->




АРИЯ   
                                 Антихрист
                                 ---------

This tab was originally provided by Vladimir Ostapchuk (http://www.geocities.com/hollywood/set/7129/)
Corrected and added by Little Prince (http://metalscript.homestead.com)

Measure: 12/8 throughout the whole song. Every measure contains 12 eighth-notes.

Tempo: moderately slow (101 bpm)

(0:01 - 0:15)

INTRO: (Play 2 times) (clean tone)

Gtr.1E||-------------------------------------------------|-------------------------------------------------||
     H||-------------------------------------------------|-------------------------------------------------||
     G||---------0-----------0-----------0-----------0---|---------0-----------0-----------0-----------0---||
     D||-----4-----------4-----------4-----------4-------|-----4-----------4-----------4-----------4-------||
     A||-2-----------2-----------2-----------2-----------|-3-----------3-----------3-----------3-----------||
     E||-------------------------------------------------|-------------------------------------------------||
      ||                                                 |                                                 ||
Gtr.2G||-------------------------------------------------|-------------------------------------------------||
     D||-------------------------------------------------|-------------------------------------------------||
     A||-2-----------------------------------------------|-3-----------------------------------------------||
     E||-------------------------------------------------|-------------------------------------------------||

(0:15 - 0:43)

VERSE 1:

VoiceE|----------------------------------------------------------------------------------------------------|
     H|----------------------------------------------------------------------------------------------------|
     G|----------------------------------------------------------------------------------------------------|
     D|------------------------------------------------------------2-----------2---------------------------|
     A|--2---4---5---2---4---5---2---4---5---2---4---5-----3---5-------3---5-------3-----------------------|
     E| Ya  rozhden byl nochyu v chas molitvy volchyey   v temnom lo -go -ve zve -rey.         ------------|
      |                                                  |                                                 |
Gtr.1E|--------------------------------------------------|-------------------------------------------------|
     H|--------------------------------------------------|-------------------------------------------------|
     G|----------0-----------0-----------0-----------0---|---------0-----------0-----------0-----------0---|
     D|------4-----------4-----------4-----------4-------|-----4-----------4-----------4-----------4-------|
     A|--2-----------2-----------2-----------2-----------|-3-----------3-----------3-----------3-----------|
     E|--------------------------------------------------|-------------------------------------------------|
      |                                                  |                                                 |
Gtr.2G|--------------------------------------------------|-------------------------------------------------|
     D|--------------------------------------------------|-------------------------------------------------|
     A|--2-----------------------------------------------|-3-----------------------------------------------|
     E|--------------------------------------------------|-------------------------------------------------|
 
VoiceE|----------------------------------------------------------------------------------------------------|
     H|----------------------------------------------------------------------------------------------------|
     G|----------------------------------------------------------------------------------------------------|
     D|------------------------------------------------------------2-----------2---------------------------|
     A|--2---4---5---2---4---5---2---4---5---2---4---5-----3---5-------3---5-------3-----------------------|
     E| Chernyy  angel  a - da  byl  so  mnoyu  ryadom    na kru-gah lyudskih strastey.        ------------|
      |                                                  |                                                 |
Gtr.1E|--------------------------------------------------|-------------------------------------------------|
     H|--------------------------------------------------|-------------------------------------------------|
     G|----------0-----------0-----------0-----------0---|---------0-----------0-----------0-----------0---|
     D|------4-----------4-----------4-----------4-------|-----4-----------4-----------4-----------4-------|
     A|--2-----------2-----------2-----------2-----------|-3-----------3-----------3-----------3-----------|
     E|--------------------------------------------------|-------------------------------------------------|
      |                                                  |                                                 |
Gtr.2G|--------------------------------------------------|-------------------------------------------------|
     D|--------------------------------------------------|-------------------------------------------------|
     A|--2-----------------------------------------------|-3-----------------------------------------------|
     E|--------------------------------------------------|-------------------------------------------------|
 
VoiceE|----------------------------------------------------------------------------------------------------|
     H|----------------------------------------------------------------------------------------------------|
     G|----------------------------------------------------------------------------------------------------|
     D|--4---4---4---2---4---2---4---4---4---2---4---2-----5---5---5---4---5---4---5-----------------------|
     A|----------------------------------------------------------------------------------------------------|
     E| Ya proshel skvoz plamya, byl  ognem  i  kamnem,  chervem byl sred' mertvyh tel.        ------------|
      |                                                  |                                                 |
Gtr.1E|--------------------------------------------------|-------------------------------------------------|
     H|--------------------------------------------------|-------------------------------------------------|
     G|----------0-----------0-----------0-----------0---|---------0-----------0-----------0-----------0---|
     D|------4-----------4-----------4-----------4-------|-----4-----------4-----------4-----------4-------|
     A|--2-----------2-----------2-----------2-----------|-3-----------3-----------3-----------3-----------|
     E|--------------------------------------------------|-------------------------------------------------|
      |                                                  |                                                 |
Gtr.2G|--------------------------------------------------|-------------------------------------------------|
     D|--------------------------4-----------------------|-------------------------------------------------|
     A|--2-----------------------------------------------|-3-----------------------0-----------------------|
     E|--------------------------------------------------|-------------------------------------------------|
 
VoiceE|----------------------------------------------------------------------------------------------------|
     H|----------------------------------------------------------------------------------------------------|
     G|----------------------------------------------------------------------------------------------------|
     D|--4---4---4---2---4---2---4---4---4---2---4---2-----5---5---5---4---5---4---5-----------------------|
     A|----------------------------------------------------------------------------------------------------|
     E| prozvan byl nechistym,   imya  mne   Antichrist.  Ty Christos,ty  na  kreste.          ------------|
      |                                                  |                                                 |
Gtr.1E|--------------------------------------------------|-------------------------------------------------|
     H|--------------------------------------------------|-------------------------------------------------|
     G|----------0-----------0-----------0-----------0---|---------0-----------0-----------0-----------0---|
     D|------4-----------4-----------4-----------4-------|-----4-----------4-----------4-----------4-------|
     A|--2-----------2-----------2-----------2-----------|-3-----------3-----------3-----------3-----------|
     E|--------------------------------------------------|-------------------------------------------------|
      |                                                  |                                                 |
Gtr.2G|--------------------------------------------------|-------------------------------------------------|
     D|--------------------------4-----------------------|-------------------------------------------------|
     A|--2-----------------------------------------------|-3-----------------------0-----------------------|
     E|--------------------------------------------------|-------------------------------------------------|

(0:44 - 0:54)

CHORUS 1:

VoiceE|----------------------------------------------------------------------------------------------------|
     H|----------------------------------------------------------------------------------------------------|
     G|----------------------------------------------------------------------------------------------------|
     D|--4-----------2-----------0-----------2-------------------------------------------------------------|
     A|----------------------------------------------------5-4-2-------------------------------------------|
     E|  Ooo    -    ooo    -    ooo    -    ooo     -     o-o-o.....   -----------------------------------|
      |                                                  |                                                 |
Gtr.1E|--------------------------------------------------|-------------------------------------------------|
     H|--------------------------------------------------|-------------------------------------------------|
     G|--------------------------------------------------|---------0-----------0-----------0-----------0---|
     D|--------------------------------------------------|-----4-----------4-----------4-----------4-------|
     A|------2-----------4-----------5-----------4-------|-2-----------2-----------2-----------2-----------|
     E|--3-------3---5-------5---7-------7---5-------5---|-------------------------------------------------|
      |                                                  |                                                 |
Bass G|--------------------------------------------------|-------------------------------------------------|
     D|--4-----------2-----------------------2-----------|-------------------------------------------------|
     A|--------------------------5-----------------------|-2-----------------------------------------------|
     E|--------------------------------------------------|-------------------------------------------------|
 
VoiceE|--------------------------------------------------|
     H|--------------------------------------------------|
     G|--------------------------------------------------|
     D|--4-----------2-----------0-----------2-----------|
     A|--------------------------------------------------|
     E|  Ooo    -    ooo    -    ooo    -    o.  --------|
      |                                                  |
Gtr.1E|--------------------------------------------------|
     H|--------------------------------------------------|
     G|------------------------------------------R-------|
     D|------------------------------------------E-------|
     A|------2-----------4-----------5-------7---S-------|
     E|--3-------3---5-------5---7-------7-------T-------|
      |                                                  |
Bass G|------------------------------------------R-------|
     D|--4-----------2-----------------------2---E-------|
     A|--------------------------5---------------S-------|
     E|------------------------------------------T-------|

(0:55 - 1:23)

VERSE 2:
        Bez tebya ya prizrak, chto  iz  hrama   izgnan,   bez  menya  ty skuchnyy mif. 
        My s toboy kak bratya v gimnah  i proklyatyah   s vechnoy vlastyu nad lyud'mi.
        No ty pryachesh' taynu, i v dushe  hrustal'noy, zna - yu ya, greh smertnyy est'.
        Ya  ne tot kto  vydast, i-mya mne  Antichrist.   Ty Hristos,tyazhyol tvoy krest.

Gtr.1E||-------------------------------------------------|-------------------------------------------------||
     H||-------------------------------------------------|-------------------------------------------------||
     G||---------0-----------0-----------0-----------0---|---------0-----------0-----------0-----------0---||
     D||-----4-----------4-----------4-----------4-------|-----4-----------4-----------4-----------4-------||
     A||-2-----------2-----------2-----------2-----------|-3-----------3-----------3-----------3-----------||
     E||-------------------------------------------------|-------------------------------------------------||
      ||                                                 |                                                 ||
Bass G||-------------------------------------------------|-------------------------------------------------||
     D||-------------------------4-----------------------|-------------------------5---4-----------0-------||
     A||-2-----------------------------------------------|-3-------------------------------3---------------||
     E||-------------------------------------------------|-------------------------------------------------||

(1:23 - 1:33) Repeat CHORUS 1

(1:33 - 2:01)

VERSE 3: (Gtr.2 with distortion)

        Ty kreschen byl krovyu,  ne rechnoy vo - doyu   v pervyy  god sud'by zem -noy
Gtr.2E|--------------------------------------------------|-------------------------------------------------|
     H|--------------------------------------------------|-------------------------------------------------|
     G|--4---4---4---4-----------4---4---4---4-----------|-5---5---5---5---------------0-------0-------0---|
     D|--4---4---4---4-----------4---4---4---4-----------|-5---5---5---5---------------2-------2-------2---|
     A|--2---2---2---2-----------2---2---2---2-----------|-3---3---3---3-----------3-3-3---3-3-3---3-3-3---|
     E|------------------3p2p0-------------------3p2p0---|-----------------3p2p0---.-.->---.-.->---.-.->---|

       Tzar' terzal mladentzev,  i vzryva - los' serdtze,slysha skorbnyy zhenskiy voy.
Gtr.2E|--------------------------------------------------|-------------------------------------------------|
     H|--------------------------------------------------|-------------------------------------------------|
     G|--4---4---4---4-----------4---4---4---4-----------|-5---5---5---5---------------0-------0-------0---|
     D|--4---4---4---4-----------4---4---4---4-----------|-5---5---5---5---------------2-------2-------2---|
     A|--2---2---2---2-----------2---2---2---2-----------|-3---3---3---3-----------3-3-3---3-3-3---3-3-3---|
     E|------------------3p2p0-------------------3p2p0---|-----------------3p2p0---------------------------|

       Tzar' iskal  Iisu - sa, chtob u - bit' iskus - no, no  ty  Bogom  byl spasyon.
Gtr.2E|--------------------------------------------------|-------------------------------------------------|
     H|--------------------------------------------------|-------------------------------------------------|
     G|--4---4---4---4-----------4---4---4---4-----------|-5---5---5---5---------------0-------0-------0---|
     D|--4---4---4---4-----------4---4---4---4-----------|-5---5---5---5---------------2-------2-------2---|
     A|--2---2---2---2-----------2---2---2---2-----------|-3---3---3---3-----------3-3-3---3-3-3---3-3-3---|
     E|------------------3p2p0-------------------3p2p0---|-----------------3p2p0---------------------------|

        Po  peskam  krova - vym nachal put' svoy k slave. Ty Hristos, velik tvoy tron.
Gtr.2E|--------------------------------------------------|-------------------------------------------------|
     H|--------------------------------------------------|-------------------------------------------------|
     G|--4---4---4---4-----------4---4---4---4-----------|-5---5---5---5---------------0-------0-------0---|
     D|--4---4---4---4-----------4---4---4---4-----------|-5---5---5---5---------------2-------2-------2---|
     A|--2---2---2---2-----------2---2---2---2-----------|-3---3---3---3-----------3-3-3---3-3-3---3-3-3---|
     E|------------------3p2p0-------------------3p2p0---|-----------------3p2p0---------------------------|

(2:02 - 2:12)

CHORUS 2:

       Trooo    -    ooo    -    ooo    -    ooo    -    o - o - on.....    
Gtr.2E|--------------------------------------------------|-------------------------------------------------|
     H|--------------------------------------------------|-------------------------------------------------|
     G|--------------------------------------------------|-4---4---4---------------4---4---4---------------|
     D|--------------------------------------------------|-4---4---4---------------4---4---4---------------|
     A|------2-----------4-----------5-----------4-------|-2---2---2-------3p2-----2---2---2-------3p2-----|
     E|--3-------3---5-------5---7-------7---5-------5---|---------------------3p2---------------------3p2-|

         Ooo    -    ooo    -    ooo    -    ooo   -      
Gtr.2E|--------------------------------------------------|
     H|--------------------------------------------------|
     G|--------------------------------------------------|
     D|--------------------------------------------------|
     A|------2-----------4-----------5-----------4-------|
     E|--3-------3---5-------5---7-------7---5-------5---|


Tempo: faster (230 bm).

(2:12 - 2:18)


        oooooooooooooooooooooooooooooooooooooooooooooooooooooooooooooooooooooooooo!!!!!!!!!!!     
Gtr.2E|-------------------------|-------------------------|-------------------------|-------------------------|
     H|-------------------------|-------------------------|-------------------------|-------------------------|
     G|-------------------------|-------------------------|-------------------------|-------------------------|
     D|-------------------------|-------------------------|-------------------------|-------------------------|
     A|-2-2-2-2-2-2-2-2-2-2-2-2-|-2-2-2-2-2-2-2-2-2-2-2-2-|-2-2-2-2-2-2-2-2-2-2-2-2-|-2-2-2-2-2-2-2-2-2-2-2-2-|
     E|-------------------------|-------------------------|-------------------------|-------------------------|

SOLO:

(2:18 - 2:43)

Part A:

Gtr.1E|-------------------------|-------------------------|-------------------------|-------------------------|
     H|-------------------------|-------------------------|-------------------------|-------------------------|
     G|-------------------------|-------------------------|-------------------------|-------------------------|
     D|-4p0---------5p0---------|-7p0-------4h5p0---------|-4p0---------5p0---------|-7p0---------5p0---------|
     A|-----4-----------4-------|-----4-----------4-------|-----4-----------4-------|-----4-----------4-------|
     E|-------7-----------7-----|-------7-----------7-----|-------7-----------7-----|-------7-----------7-----|
      |                         |                         |                         |                         |
Gtr.2E|-------------------------|-------------------------|-------------------------|-------------------------|
     H|-------------------------|-------------------------|-------------------------|-------------------------|
     G|-------------------------|-------------------------|-------------------------|-------------------------|
     D|-------------------------|-------------2-2-2-2-2-2-|-------------------------|-------------------------|
     A|-2-2-2-2-2-2-2-2-2-2-2-2-|-2-2-2-2-2-2-------------|-------------------------|-------------5-5-5-5-5-5-|
     E|-------------------------|-------------------------|-3-3-3-3-3-3-3-3-3-3-3-3-|-3-3-3-3-3-3-------------|
 
Gtr.1E|-------------------------|-------------------------|-------------------------|-------------------------|
     H|-------------------------|-------------------------|-------------------------|-------------------------|
     G|-------------------------|-------------------------|-------------------------|-------------------------|
     D|-7p0---------5p4---------|-7p0---------5p4---------|-7p0---------5p4---------|-7p0---------5p4---------|
     A|-----4-----------7-------|-----4-----------7-------|-----4-----------7-------|-----4-----------7-------|
     E|-------------------------|-------------------------|-------------------------|-------------------------|
      |                         |                         |                         |                         |
Gtr.2E|-------------------------|-------------------------|-------------------------|-------------------------|
     H|-------------------------|-------------------------|-------------------------|-------------------------|
     G|-------------------------|-------------------------|-------------------------|-------------------------|
     D|-------------------------|-------------------------|-------------------------|-------------------------|
     A|-------------------------|-------------4-4-4-4-4-4-|-2-2-2-4-4-4-5-5-5-4-4-4-|-2-2-2-------------------|
     E|-5-5-5-5-5-5-5-5-5-5-5-5-|-5-5-5-5-5-5-------------|-------------------------|-------5-5-5-3-3-3-2-2-2-|
 
Gtr.1E|-------------------------|-------------------------|-------------------------|-------------------------|
     H|-------------------------|-------------------------|-------------------------|-------------------------|
     G|-------------------------|-------------------------|-------------------------|-------------------------|
     D|-4p0---------5p0---------|-7p0-------4h5p0---------|-4p0---------5p0---------|-7p0---------5p0---------|
     A|-----4-----------4-------|-----4-----------4-------|-----4-----------4-------|-----4-----------4-------|
     E|-------7-----------7-----|-------7-----------7-----|-------7-----------7-----|-------7-----------7-----|
      |                         |                         |                         |                         |
Gtr.2E|-------------------------|-------------------------|-------------------------|-------------------------|
     H|-------------------------|-------------------------|-------------------------|-------------------------|
     G|-------------------------|-------------------------|-------------------------|-------------------------|
     D|-------------------------|-------------2-2-2-2-2-2-|-------------------------|-------------------------|
     A|-2-2-2-2-2-2-2-2-2-2-2-2-|-2-2-2-2-2-2-------------|-------------------------|-------------5-5-5-5-5-5-|
     E|-------------------------|-------------------------|-3-3-3-3-3-3-3-3-3-3-3-3-|-3-3-3-3-3-3-------------|
 
Gtr.1E|-------------------------|-------------------------|-------------------------|-------------------------|
     H|-------------------------|-------------------------|-3p0-0-0-0-0-3p0-0-0-0-0-|-5p0-0-0-0-0-7p0-0-0-0-0-|
     G|-------------------------|-------------------------|-------------------------|-------------------------|
     D|-7p0---------5p0---------|-7p0-------4h5p0---------|-------------------------|-------------------------|
     A|-----4-----------4-------|-----4-----------4-------|-------------------------|-------------------------|
     E|-------------------------|-------------------------|-------------------------|-------------------------|
      |                         |                         |                         |                         |
Gtr.2E|-------------------------|-------------------------|-------------------------|-------------------------|
     H|-------------------------|-------------------------|-------------------------|-------------------------|
     G|-------------------------|-------------------------|-------------------------|-------------------------|
     D|-------------------------|-------------------------|-4-4-4-4-4-4-4-4-4-4-4-4-|-4-4-4-4-4-4-4-4-4-4-4-4-|
     A|-------------------------|-------------4-4-4-4-4-4-|-------------------------|-------------------------|
     E|-5-5-5-5-5-5-5-5-5-5-5-5-|-5-5-5-5-5-5-------------|-------------------------|-------------------------|

(2:43 - 3:08)

Part B:

Gtr.1E|--------------------------------------|----------------------------7--------|
     H|-/7-----------------------------------|-------------------------------10p7--|
     G|--------------------9~~~~~~~~~~~~~~~~~|-(9)~~~~~~~~~~~----------------------|
     D|--------------------------------------|-------------------------------------|
     A|--------------------------------------|-------------------------------------|
     E|--------------------------------------|-------------------------------------|
      |                                      |                                     |
Gtr.2E|--------------------------------------|-------------------------------------|
     H|--------------------------------------|-------------------------------------|
     G|--------------------------------------|-------------------------------------|
     D|--------------------------------------|-------------------------------------|
     A|--2--2--2--2--2--2--2--2--2--2--2--2--|-2--2--2--2--2--2--2--2--2--2--2--2--|
     E|--------------------------------------|-------------------------------------|
 
Gtr.1E|--------------------------------------|-------------------------------------|
     H|--10b12...............release10-------|-12-12----14p0--0--15p0--0--17b19...-|
     G|-------- hold bend -------------------|-------11----------------------------|
     D|--------------------------------------|-------------------------------------|
     A|--------------------------------------|-------------------------------------|
     E|--------------------------------------|-------------------------------------|
      |                                      |                                     |
Gtr.2E|--------------------------------------|-------------------------------------|
     H|--------------------------------------|-------------------------------------|
     G|--------------------------------------|-------------------------------------|
     D|--------------------------------------|-------------------------------------|
     A|--2--2--2--4--4--4--5--5--5--4--4--4--|-2--2--2-----------------------------|
     E|--------------------------------------|----------5--5--5--3--3--3--2--2--2--|
 
Gtr.1E|--------------------------------------|-------------------------------------|
     H|..rel17~~~~~~~~~~~~-------------------|-------------------------------------|
     G|-----------------------------19---18--|-19----18h19p18p16-18~~~~~~~~~~~~----|
     D|--------------------------------------|-------------------------------------|
     A|--------------------------------------|-------------------------------------|
     E|--------------------------------------|-------------------------------------|
      |                                      |                                     |
Gtr.2E|--------------------------------------|-------------------------------------|
     H|--------------------------------------|-------------------------------------|
     G|--------------------------------------|-------------------------------------|
     D|--------------------------------------|-------------------------------------|
     A|--4--4--4-----------4--4--4-----------|-4--4--4-----------4--4--4-----------|
     E|-----------2--2--2-----------2--2--2--|----------2--2--2-----------2--2--2--|
 
Gtr.1E|--------------------------------------|-------------------------------------|
     H|--19p15----------14-17p14----------15-|-19p15----------14-17bend19.........-|
     G|--------16-15-16----------15-14-16----|-------16-15-16------------- hold ---|
     D|--------------------------------------|---------------------------- bend ---|
     A|--------------------------------------|-------------------------------------|
     E|--------------------------------------|-------------------------------------|
      |                                      |                                     |
Gtr.2E|--------------------------------------|-------------------------------------|
     H|--------------------------------------|-------------------------------------|
     G|--------------------------------------|-------------------------------------|
     D|--------------------------------------|-------------------------------------|
     A|--------------------------------------|-------------------------------------|
     E|--2--2--2--2--2--2--2--2--2--2--2--2--|-2--2--2--2--2--2--2--2--2--2--2--2--|
 
                                    T      T      T      T      T      T      T
Gtr.1E|-----------------------------19p15--19p14--19p15--19p14--19p12--19p10--19p9-|
     H|..rel17~~~~~~~~~~---------------------|-------------------------------------|
     G|--------------------------------------|-------------------------------------|
     D|--------------------------------------|-------------------------------------|
     A|--------------------------------------|-------------------------------------|
     E|--------------------------------------|-------------------------------------|
      |                                      |                                     |
Gtr.2E|--------------------------------------|-------------------------------------|
     H|--------------------------------------|-------------------------------------|
     G|--------------------------------------|-------------------------------------|
     D|--------------------------------------|-------------------------------------|
     A|--2--2--2--2--2--2--2--2--2--2--2--2--|-2--2--2--2--2--2--2--2--2--2--2--2--|
     E|--------------------------------------|-------------------------------------|
 
Gtr.1E|--7--------7--5-----------7-----------|-Harm.---Harm.-----------------------|
     H|-----------------8--7--8-----7--5-----|-<7>-----<8>-------7--------6--------|
     G|-----------------------------------7--|----7--4-----7--4-----7--4-----7--4--|
     D|--------------------------------------|-------------------------------------|
     A|--------------------------------------|-------------------------------------|
     E|--------------------------------------|-------------------------------------|
      |                                      |                                     |
Gtr.2E|--------------------------------------|-------------------------------------|
     H|--------------------------------------|-------------------------------------|
     G|--------------------------------------|-------------------------------------|
     D|--------------------------------------|-------------------------------------|
     A|--2--2--2--4--4--4--5--5--5--4--4--4--|-2--2--2-----------------------------|
     E|--------------------------------------|----------5--5--5--3--3--3--2--2--2--|
 
Gtr.1E|--------------------------------------|-------------------------------------|
     H|--------------------------------------|-------------------------------------|
     G|--6-----------------6-----------------|-6--------6--------6-----------------|
     D|-----------7-----4-----------7-----4--|----7--4-----7--4--------------------|
     A|--------------------------------------|-------------------------------------|
     E|--------------------------------------|-------------------------------------|
      |                                      |                                     |
Gtr.2E|--------------------------------------|-------------------------------------|
     H|--------------------------------------|-------------------------------------|
     G|--------------------------------------|-------------------------------------|
     D|--------------------------------------|-------------------------------------|
     A|--4--4--4-----------4--4--4-----------|-4--4--4-----------4--4--4-----------|
     E|-----------2--2--2-----------2--2--2--|----------2--2--2-----------2--2--2--|
 
Gtr.1E|--------------------------------------|-------5h6h8--6-----------------------|
     H|--------5--6--5-----------5--8--6--5--|-6--8----------10---8h10--8-----------|
     G|--6--7-----------7--6--7--------------|-------------------------------9-----|
     D|--------------------------------------|-------------------------------------|
     A|--------------------------------------|-------------------------------------|
     E|--------------------------------------|-------------------------------------|
      |                                      |                                     |
Gtr.2E|--------------------------------------|-------------------------------------|
     H|--------------------------------------|-------------------------------------|
     G|--------------------------------------|-------------------------------------|
     D|--------------------------------------|-------------------------------------|
     A|--------------------------------------|-------------------------------------|
     E|--2--2--2--2--2--2--2--2--2--2--2--2--|-2--2--2--2--2--2--2--2--2--2--2--2--|

(3:09 - 3:33)

Part C:

E|-------------------------------5--6--|h8--6--5-----6--5--------------------|
H|----5--6--8--6--5-----5--6--8--------|----------8--------8--6--5-----6--5--|
G|-7-----------------7-----------------|----------------------------7--------|
D|-------------------------------------|-------------------------------------|
A|-------------------------------------|-------------------------------------|
E|-------------------------------------|-------------------------------------|


E|-------------------------------------|-------------------------------------|
H|-------------------------------------|-------------------------------------|
G|-7--5-----------5--7--5--------5-----|-------------------------------------|
D|-------8--7--8-----------8--7-----8--|-7--5--------------------------------|
A|-------------------------------------|-------8--7--5-----------------------|
E|-------------------------------------|----------------8--5//--pick sl------|


E|-------------------------------------|-----------19\\\---------------------|
H|----------------------------12-------|-----------20\\\---------------------|
G|----------12----------------12-------|-------------------------------------|
D|----9--12-12-------------9-----------|--?????------------------------------|
A|-10-------------------10-------------|-------------------------------------|
E|-------------------10----------------|-------------------------------------|

                     .  .  .
E|----------12-10----------------------|-------------------------------------|
H|----9--12-------13-12-10-9-----------|-------------------------------------|
G|--9------------------------10--9--7--|-------------------------------------|
D|-------------------------------------|-10--9--7--6-------------------------|
A|-------------------------------------|-------------8--7--------------------|
E|-------------------------------------|-------------------8--7--5--7--------|


E|-5--6-----5--------------------------|-5--6-----5--------------------------|
H|-------8-----6--8--5--6-----5--6--8--|-------8-----6--8--5--6-----5--6--8--|
G|-------------------------7-----------|-------------------------7-----------|
D|-------------------------------------|-------------------------------------|
A|-------------------------------------|-------------------------------------|
E|-------------------------------------|-------------------------------------|


E|-------------------------------------|--------------12h13h15p13p12h13p12------------|
H|-5--6-----5--------------------------|-------10/12h13h15-------------15p13\10-----|
G|-------7-----5--7--4--5--------------|-7-------------------------------12p9-|
D|-------------------------7-----------|-------------------------------------|
A|-------------------------------------|-------------------------------------|
E|-------------------------------------|-------------------------------------|


E|-------------------------------------|-------------------------------------|
H|-------------------------------------|--- wide vibrato --------------------|
G|-------------------------------------|-12~~~~~~/\/\/\\\\\------------------|
D|-9--------12----9-h12----------------|-12~~~~~~/\/\/\\\\\------------------|
A|-------------------------------------|-------------------------------------|
E|-------------------------------------|-------------------------------------|


E|-------------------------------------|-------------------------------------|
H|-------------------------------------|-------------------------------------|
G|-7h10p7---10--9----5h8p5----8--7-----|7h10p7----10--9----5h8p5---<7>~~~~---|
D|-------10-------10-------8--------8--|-------10-------10-------8-----------|
A|-------------------------------------|-------------------------------------|
E|-------------------------------------|-------------------------------------|

(3:34 - 3:45)

Part D:

Gtr.1E||-------------------------------------|-------------------------------------||
     H||-------------------------------------|-------------------------------------||
     G||-------------------------------------|-------------------------------------||} Play
     D||-------------------------------------|-6--6-----5--------4--4-----3--------||}  2
     A||-2-h4-h5--2-h4-h5--2-h4-h5--2-h4-h5--|-------7-----6--6--------5-----4--4--||} times
     E||-------------------------------------|-------------------------------------||

Play next line with 2 guitars:

Gtr.1E||-------------------------------------|-------------------------------------||
Gtr.2H||-------------------------------------|-------------------------------------||
     G||-------------------------------------|-------------------------------------||} Play
     D||-4-h6-h7--4-h6-h7--4-h6-h7--4-h6-h7--|-6--6-----5--------4--4-----3--------||}  2
     A||-2-h4-h5--2-h4-h5--2-h4-h5--2-h4-h5--|-------7-----6--6--------5-----4--4--||} times
     E||-------------------------------------|-------------------------------------||

END OF SOLO.

(3:46 - 3:58)

INTERLUDE:

       Dlya milli - onov   ty  ne  vinoven,  moy zhe otetz - Satana.
Gtr.1E|--------------------------------------|-------------------------------------|
Gtr.2H|--------R-----------------------------|-------------------------------------|
     G|--4--4--E-----------------------------|-5-----------------------------------|
     D|--4--4--S-----------------------------|-5-----------------------------------|
     A|--2--2--T-----------------------------|-3-----------------------------------|
     E|--------------------------------------|-------------------------------------|

        No Padshiy Angel   bogu byl raven,  mstit' za nego budu ya.
Gtr.1E|--------------------------------------|-------------------------------------|
Gtr.2H|--------R-----------------------------|-------------------------------------|
     G|--4--4--E-----------------------------|-5-----------------------------------|
     D|--4--4--S-----------------------------|-5-----------------------------------|
     A|--2--2--T-----------------------------|-3-----------------------------------|
     E|--------------------------------------|-------------------------------------|

       No my sochtemsya, v bitve soydemsya v god samoy gor'koy zvezdy.
Gtr.1E|--------------------------------------|-------------------------------------|
Gtr.2H|--------------------------------------|-------------------------------------|
     G|--------------------------------------|-------------------------------------|
     D|--4-h6-h7--4-h6-h7--4-h6-h7--4-h6-h7--|-6--6-----5--------4--4-----3--------|
     A|--2-h4-h5--2-h4-h5--2-h4-h5--2-h4-h5--|-------7-----6--6--------5-----4--4--|
     E|--------------------------------------|-------------------------------------|

       Znayu  naverno,    ruhnu ya pervym,  tol'ko pogibnesh' i ty.
Gtr.1E|--------------------------------------|-------------------------------------|
Gtr.2H|--------------------------------------|-------------------------------------|
     G|--------------------------------------|-------------------------------------|
     D|--4-h6-h7--4-h6-h7--4-h6-h7--4-h6-h7--|-6--6-----5--------4--4-----3--------|
     A|--2-h4-h5--2-h4-h5--2-h4-h5--2-h4-h5--|-------7-----6--6--------5-----4--4--|
     E|--------------------------------------|-------------------------------------|

(3:58 - 4:23)

MAIN CHORUS:

VoiceE||---------------------------------------------------------------------------|
     H||---------------------------------------------------------------------------|
     G||---------------------------------------------------------------------------|
     D||--4----------------2-------------------0-----------------2-----------------|
     A||---------------------------------------------------------------------------|
     E|| I       -       mya                 mne                 An     -         -|
      ||                                     |                                     |
Gtr.2E||-------------------------------------|-------------------------------------|
     H||-------------------------------------|-------------------------------------|
     G||-------------------------------------|-------------------------------------|
     D||-------------------------------------|-------------------2--2--2--2--2--2--|
     A||-2--2--2--2--2--2--2--2--2--2--2--2--|-2--2--2--2--2--2--------------------|
     E||-------------------------------------|-------------------------------------|
 
VoiceE|----------------------------------------------------------------------------|
     H|----------------------------------------------------------------------------|
     G|----------------------------------------------------------------------------|
     D|--0-------------------------------------------------------------------------|
     A|-----------2----------------------------------------------------------------|
     E| tich  -  rist,     --------------------------------------------------------|
      |                                      |                                     |
Gtr.2E|--------------------------------------|-------------------------------------|
     H|--------------------------------------|-------------------------------------|
     G|--------------------------------------|-------------------------------------|
     D|--------------------------------------|-------------------------------------|
     A|--------------------------------------|-------------------5--5--5--5--5--5--|
     E|--3--3--3--3--3--3--3--3--3--3--3--3--|-3--3--3--3--3--3--------------------|
 
VoiceE|----------------------------------------------------------------------------|
     H|----------------------------------------------------------------------------|
     G|----------------------------------------------------------------------------|
     D|---4----------------2-------------------0-----------------2-----------------|
     A|----------------------------------------------------------------------------|
     E| znak              moy                tzif       -       ra                -|
      |                                      |                                     |
Gtr.2E|--------------------------------------|-------------------------------------|
     H|--------------------------------------|-------------------------------------|
     G|--------------------------------------|-------------------------------------|
     D|--------------------------------------|-------------------------------------|
     A|--------------------------------------|-------------------4--4--4--4--4--4--|
     E|--5--5--5--5--5--5--5--5--5--5--5--5--|-5--5--5--5--5--5--------------------|
 
VoiceE|----------------------------------------------------------------------------|
     H|----------------------------------------------------------------------------|
     G|----------------------------------------------------------------------------|
     D|----------------------------------------------------------------------------|
     A|---2------------------------------------------------------------------------|
     E| shest'....       shest'.....         shest'...      -----------------------|
      |                                      |                                     |
Gtr.2E|--------------------------------------|-------------------------------------|
     H|--------------------------------------|-------------------------------------|
     G|--------------------------------------|-------------------------------------|
     D|--------------------------------------|-------------------------------------|
     A|--2--2--2--4--4--4--5--5--5--4--4--4--|-2--2--2-----------------------------|
     E|--------------------------------------|----------5--5--5--3--3--3--2--2--2--|
 
VoiceE|----------------------------------------------------------------------------|
     H|----------------------------------------------------------------------------|
     G|----------------------------------------------------------------------------|
     D|---4----------------2-------------------0-----------------2-----------------|
     A|----------------------------------------------------------------------------|
     E|- I       -       mya                 mne                 An     -         -|
      |                                      |                                     |
Gtr.2E|--------------------------------------|-------------------------------------|
     H|--------------------------------------|-------------------------------------|
     G|--------------------------------------|-------------------------------------|
     D|--------------------------------------|-------------------2--2--2--2--2--2--|
     A|--2--2--2--2--2--2--2--2--2--2--2--2--|-2--2--2--2--2--2--------------------|
     E|--------------------------------------|-------------------------------------|
 
VoiceE|----------------------------------------------------------------------------|
     H|----------------------------------------------------------------------------|
     G|----------------------------------------------------------------------------|
     D|--0-------------------------------------------------------------------------|
     A|-----------2----------------------------------------------------------------|
     E| tich  -  rist,     --------------------------------------------------------|
      |                                      |                                     |
Gtr.2E|--------------------------------------|-------------------------------------|
     H|--------------------------------------|-------------------------------------|
     G|--------------------------------------|-------------------------------------|
     D|--------------------------------------|-------------------------------------|
     A|--------------------------------------|-------------------5--5--5--5--5--5--|
     E|--3--3--3--3--3--3--3--3--3--3--3--3--|-3--3--3--3--3--3--------------------|
 
VoiceE|----------------------------------------------------------------------------|
     H|----------------------------------------------------------------------------|
     G|----------------------------------------------------------------------------|
     D|---4----------------2-------------------0-----------------2-----------------|
     A|----------------------------------------------------------------------------|
     E| plach'     -      te                   o                du    -           -|
      |                                      |                                     |
Gtr.2E|--------------------------------------|-------------------------------------|
     H|--------------------------------------|-------------------------------------|
     G|--------------------------------------|-------------------------------------|
     D|--------------------------------------|-------------------------------------|
     A|--------------------------------------|-------------------4--4--4--4--4--4--|
     E|--5--5--5--5--5--5--5--5--5--5--5--5--|-5--5--5--5--5--5--------------------|
 
VoiceE|----------------------------------------------------------------------------||
     H|----------------------------------------------------------------------------||
     G|----------------------------------------------------------------------------||
     D|---4------------------------------------------------------------------------||
     A|----------------------------------------------------------------------------||
     E| sheeeeeeeeeeeeeeeeeeeeeeeee.......                                     ----||
      |                                      |                                     ||
Gtr.2E|--------------------------------------|-------------------------------------||
     H|--------------------------------------|-------------------------------------||
     G|--------------------------------------|-------------------------------------||
     D|--4--4--4--4--4--4--4--4--4--4--4--4--|-4--4--4--4--4--4--4--4--4--4--4--4--||
     A|--------------------------------------|-------------------------------------||
     E|--------------------------------------|-------------------------------------||

(4:23 - 4:48) Repeat MAIN CHORUS; add gtr.1 from part A of SOLO and with choir singing.

(4:48 - 5:01)

OUTRO:

Gtr.E|----------------------------------|-------------------------------------|
    H|----------------------------------|-------------------------------------|
    G|----------------------------------|-------------------------------------|
    D|----------------------------------|-6--6-----5--------4--4-----3--------|
    A|--2h4h5---2h4h5---2h4h5---2h4h5---|-------7-----6--6--------5-----4--4--|
    E|----------------------------------|-------------------------------------|


Gtr.E|----------------------------------|---------------------------------|-------------..
    H|----------------------------------|---------------------------------|-------------..
    G|----------------------------------|---------------------------------|-------------..
    D|----------------------------------|----------------------------fading down--------..
    A|--2-----2---------3-----3---------|-2-----2---------3-----3---------|-2-----2-----..
    E|--2-----2---------3-----3---------|-2-----2---------3-----3---------|-2-----2-----..


                                 Антихрист
                                 ---------

Tabbed by Ostapchuk Vladimir
Main riff :

E<----------2 times--------->|
H<----4x----->|<----4x----->||
G---------0---|---------0---||
D------4------|------4------||
A---2---------|---3---------||
E-------------|-------------||

Intro, I Verse  - main riff 6 times.

Chorus :
E------------------------------------------|<----4 x---->||
H------------------------------------------|-------------||
G------------------------------------------|---------0---||
D--------------------------0---------2-----|------4------||
A------2---------4------2-----2---4-----4--|---2---------||
E---3-----3---5-----5----------------------|-------------||

E--------------------------------------------------------||
H--------------------------------------------------------||
G--------------------------------------------------------||
D--------------------------0-----------------------------||
A------2---------4------2-----2---4----------------------||
E---3-----3---5-----5------------------------------------||

II Verse : main riff 4 times.
E<-H5------2 x---C5------->|<-F#5------2 x---G5--------||
H<----4 x---->|<----4x---->|<----4 x---->|<----4 x---->||
G---------0---|--------0---|---------0---|---------0---||
D------4------|-----4------|------4------|------4------||
A---2---------|--3---------|---2---------|---3---------||
E-------------|------------|-------------|-------------||

Chorus.

III verse:
I not sure in this chords.

H5, C#5, D5  2x
C5, D5,  E5,
C5,C5, E5 3x

Chorus 1 :

E------------------------------------------||
H------------------------------------------||
G------------------------------------------||
D--------------------------0---------2-----||
A------2---------4------2-----2---4-----4--||
E---3-----3---5-----5----------------------||

E----------------------------------------------------------||
D----------------------------------------------------------||
G---4--4--4--------5--4---------4--4--4--------5--4--------||
D---4--4--4--------------5--4---4--4--4----------5--4------||
A---2--2--2---------------------2--2--2--------------------||
E----------------------------------------------------------||

E----------------------------------------------------------||
H----------------------------------------------------------||
G----------------------------------------------------------||
D--------------------------0-------------------------------||
A------2---------4------2-----2---4----2-2-2-2-2-2-2-2-2...||
E---3-----3---5-----5--------------------------------------||

Bridge ?
Solo :
E---14----12-----12--10------12\---12-0-0--14-0-0--15-0-0--19--||
H------------------------12------------------------------------||
G--------------------------------------------------------------||
D--------------------------------------------------------------||
A--------------------------------------------------------------||
E--------------------------------------------------------------||

E---17~~~~-------15-14-15--14h15p14--12---14-------------------||
H--------------------------------------------------------------||
G--------------------------------------------------------------||
D--------------------------------------------------------------||
A--------------------------------------------------------------||
E--------------------------------------------------------------||

 






                       


Copyright © Музыкальный Портал на Куличках 1999-2007      music@kulichki.com


    Stolica.ru    
Реклама в Интернет