Stolica.ru Реклама на Куличках     

Аккорды песен:
A B C D E F G H I J K L M N O P Q R S T U V W X Y Z
АБВГДЕЖЗИКЛМНОПРСТУФХЦЧШЩЭЮЯ





Тексты песен :     A B C D E F G H I J K L M N O P Q R S T U V W X Y Z #

ПОЛНЫЙ СПИСОК ПЕСЕН ГРУППЫ




-->



АРИЯ   

Воля и разум
------------
tabbed by Vladimir Gelfand ("Little Prince")

Tempo: 131 quarternote per minute
(0:01 - 0:31)
INTRO: play RIFF 1  4 times:       
E||---------------------------|--------------------------|
H||---------------------------|--------------------------|
G||---------------------------|--------------------------|
D||-----2--------2-----4-/5---|-----2--------2-----0--2--|
A||-----2--------2-----4-/5---|-----2--------2-----0--2--|
E||--0-----0--0-----0---------|--0-----0--0-----0--------|
     .  >  .  .  >  .  >         .  >  .  .  >  .  >
E|---------------------------|--------------------------||
H|---------------------------|--------------------------||
G|---------------------------|--------------------------||
D|-----2--------2-----4--5---|--2--------2--------------||
A|-----2--------2-----4--5---|--2--------2--------------||
E|--0-----0--0-----0---------|-----0--0-----------------||
    .  >  .  .  >  .  >         >  .  .  >

(0:31 - 1:00)
VERSE 1: (with RIFF 1)
    V glubokoy shahte            kotoryy  god 
E|---------------------------|--------------------------|
H|---------------------------|--------------------------|
G|---------------------------|--------------------------|
D|-----2--------2-----4-/5---|-----2--------2-----0--2--|
A|-----2--------2-----4-/5---|-----2--------2-----0--2--|
E|--0-----0--0-----0---------|--0-----0--0-----0--------|
    .  >  .  .  >  .  >         .  >  .  .  >  .  >
      taitsya  chudische   zmey.
E|---------------------------|--------------------------|
H|---------------------------|--------------------------|
G|---------------------------|--------------------------|
D|-----2--------2-----4-/5---|--2--------2--------------|
A|-----2--------2-----4-/5---|--2--------2--------------|
E|--0-----0--0-----0---------|-----0--0-----------------|
    .  >  .  .  >  .  >         >  .  .  >

 Stal'nye nervy, sta'naya plot', 
 stal'naya hvatka kogtey.
 On kopit sily, lenivo zhdyot,
 napraviv v nebo radar.
 Odna oshibka, sluchaynyy vzlyot,
 i neizbezhen udar.

(1:00 - 1:15)
BRIDGE:
  Vsyo,   vo   chto   ty   naveki   vlyublyon,
E|--------------------------|--------------------------|
H|--------------------------|--------------------------|
G|--------------------------|--------------------------|
D|--5-----------------------|--7-----------9--9--9--9--|
A|--3-----------7-----------|--5-----------7--7--7--7--|
E|--------------5-----------|--------------------------|
    u - nich - to - zhit     razom
E|--------------------------|--------------------------|
H|--------------------------|--------------------------|
G|--------------------------|--------------------------|
D|--5-----------------------|--7-----------5--4--2-----|
A|--3-----------7-----------|--5-----3--5-----------5--|
E|--------------5-----------|-----5--------------------|
  tys - che - gla - vyy     ubiytsa - drakon.
E|--------------------------|--------------------------|
H|--------------------------|--------------------------|
G|--------------------------|--------------------------|
D|--5-----------------------|--7-----------9--9--9--9--|
A|--3-----------7-----------|--5-----------7--7--7--7--|
E|--------------5-----------|--------------------------|
   Dolzhen byt'poverzhen on.     Sil'nee vsyakih voyn - 
E|--------------------------|--------------------------|
H|--------------------------|--------------------------|
G|--------------------------|--R-----------------------|
D|--7--------------------9--|--E-----------------------|
A|--7--------------------9--|--S-----------------------|
E|--5--------------------7--|--T-----------------------|
(1:15 - 1:30) CHORUS: "Volya i razum" play with RIFF 1.
--------------------------------------------------------------------------------

 






                       


Copyright © Музыкальный Портал на Куличках 1999-2007      music@kulichki.com


    Stolica.ru    
Реклама в Интернет