Stolica.ru Реклама на Куличках     

Аккорды песен:
A B C D E F G H I J K L M N O P Q R S T U V W X Y Z
АБВГДЕЖЗИКЛМНОПРСТУФХЦЧШЩЭЮЯ





Тексты песен :     A B C D E F G H I J K L M N O P Q R S T U V W X Y Z #

ПОЛНЫЙ СПИСОК ПЕСЕН ГРУППЫ




-->



АРИЯ   

Бивни черных скал
-----------------
tabbed by Vladimir Gelfand ("Little Prince")

Tempo: fast (162 bpm)
INTRO:
(0:02 - 0:06)
E|------------------------------------------|-----------------------------------------|
H|------------------------------------------|-----------------------------------------|
G|------------------------------------------|-----------------------------------------|
D|------------------------------------------|-----------------------------------------|
A|--10---9---------9----7---------7----5----|-(5)-------------------------------------|
E|--8----7---------7----5---------5----3----|-(3)-------------------------------------|

E|------------------------------------------|
H|------------------------------------------|
G|------------------------------------------|
D|------------------------------------------|
A|------------------------------------------|
E|------------------------------------------|

(0:06 - 0:27)
RIFF 1:
E|------------------------------------------|------------------------------------12---|
H|--13---12h13p12-\10--------10---12---10---|-13---12h13p12-\10--------10---12--------|
G|----------------------12------------------|---------------------12------------------|
D|------------------------------------------|-----------------------------------------|
A|------------------------------------------|-----------------------------------------|
E|------------------------------------------|-----------------------------------------|


E|------------------------------------------|-----------------------------------------|
H|--13--------------------------------------|-----------------------------------------|
G|------------------------------------------|-----------------------------------------|
D|------------------------------------------|-----------------------------------------|
A|------------------------------------------|-----------------------------------------|
E|------------------------------------------|-----------------------------------------|


E|------------------------------------------|-----------------------------------------|
H|--13---12h13p12-\10--------10---12---10---|-13---12h13p12-\10--------10---12---13---|
G|----------------------12------------------|---------------------12------------------|
D|------------------------------------------|-----------------------------------------|
A|------------------------------------------|-----------------------------------------|
E|------------------------------------------|-----------------------------------------|


E|------------------------------------------|-----------------------------------------|
H|--10--------------------------------------|-----------------------------------------|
G|------------------------------------------|-----------------------------------------|
D|------------------------------------------|-----------------------------------------|
A|------------------------------------------|-----------------------------------------|
E|------------------------------------------|-----------------------------------------|


E|------------------------------------------|------------------------------------12---|
H|--13---12h13p12-\10--------10---12---10---|-13---12h13p12-\10--------10---12--------|
G|----------------------12------------------|---------------------12------------------|
D|------------------------------------------|-----------------------------------------|
A|------------------------------------------|-----------------------------------------|
E|------------------------------------------|-----------------------------------------|


E|------------------------------------------|-----------------------------------------|
H|--13------------------------------------13h15p13\12-12h13p12\10---------------------|
G|------------------------------------------|---------------------12--------9---------|
D|------------------------------------------|-----------------------------------------|
A|------------------------------------------|-----------------------------------------|
E|------------------------------------------|-----------------------------------------|


E|------------------------------------------|-----------------------------------------|
H|------------------------------------------|-----------------------------------------|
G|------------------------------------------|-----------------------------------------|
D|------------------------------------------|-----------------------------------------|
A|--10---9---------9----7---------7----5----|-(5)-----------------7-------------------|
E|--8----7---------7----5---------5----3----|-(3)-------------------------------------|

(0:27 - 0:50)
VERSE 1:
VoiceE|---5-----3--------------3-----------5--------------------------5----|
     H|------------------6----------------------------------------3--------|
     G|--------------------------------------------------------------------|
     D|--------------------------------------------------------------------|
     A|--------------------------------------------------------------------|
     E|- Biv - ni     chyor - nyh        skal                     i  pes - |
      |                                  |                                 |
Gtr. G|----------------------------------|---------------------------------|
     D|----------------------------------|---------------------------------|
     A|--5---5-5-5---5-5-5---5-5-5---5-5-|-5---5-5-5---5-5-5---5-5-5---5-5-|
     E|----------------------------------|---------------------------------|
 
VoiceE|---3--------------------------------3-------------------------3-3---|
     H|-------------6----5-----------6-------------------------------------|
     G|--------------------------------------------------------------------|
     D|--------------------------------------------------------------------|
     A|--------------------------------------------------------------------|
     E|- cher      tu - poy          os - kal.                     Chelo - |
      |                                  |                                 |
Gtr. G|----------------------------------|---------------------------------|
     D|----------------------------------|---------------------------------|
     A|--3---3-3-3---3-3-3---3-3-3---3-3-|-3---3-3-3---3-3-3---3-3-3---3-3-|
     E|----------------------------------|---------------------------------|
 
VoiceE|------------------------------------3-----------3-------------------|
     H|---1----------------------1----1--------------------6--------5------|
     G|--------------------------------------------------------------------|
     D|--------------------------------------------------------------------|
     A|--------------------------------------------------------------------|
     E|- vek                   sre - di   gor         nichtozh  -  no  ----|
      |                                  |                                 |
Gtr. G|----------------------------------|---------------------------------|
     D|----------------------------------|---------------------------------|
     A|----------------------------------|---------------------------------|
     E|--3---3-3-3---3-3-3---3-3-3---3-3-|-3---3-3-3---3-3-3---3-3-3---3-3-|
 
VoiceE|--------------------------------------------------------------------|
     H|---3----------------------------------------------------------------|
     G|--------------------------------------------------------------------|
     D|--------------------------------------------------------------------|
     A|--------------------------------------------------------------------|
     E|- mal.         -----------------------------------------------------|
      |                                  |                                 |
Gtr. G|----------------------------------|-----7-----------7---------------|
     D|----------------------------------|-----7-----------7---------------|
     A|--5---5-5-5---5-5-5---5-5-5-------|-5---5-----------5---------------|
     E|----------------------------------|---------------------------------|
 
         On      pol - zyot         na - verh,                   on  tzep- 
Gtr. G|----------------------------------|---------------------------------|
     D|----------------------------------|---------------------------------|
     A|--5---5-5-5---5-5-5---5-5-5---5-5-|-5---5-5-5---5-5-5---5-5-5---5-5-|
     E|----------------------------------|---------------------------------|
 
         lya  -  yet - sya          za   sneg,                    za  tu- 
Gtr. G|----------------------------------|---------------------------------|
     D|----------------------------------|---------------------------------|
     A|--3---3-3-3---3-3-3---3-3-3---3-3-|-3---3-3-3---3-3-3---3-3-3---3-3-|
     E|----------------------------------|---------------------------------|
 
         man                     i   za    vo  -  du      byst  -  ryh   
Gtr. G|----------------------------------|---------------------------------|
     D|----------------------------------|---------------------------------|
     A|----------------------------------|---------------------------------|
     E|--3---3-3-3---3-3-3---3-3-3---3-3-|-3---3-3-3---3-3-3---3-3-3---3-3-|
 
         rek.
Gtr. G|----------------------------------|---------------------------------|
     D|----------------------------------|---------------------------------|
     A|--5---5-5-5---5-5-5---5-5-5---5-5-|-5----------------8----7----5----|
     E|----------------------------------|---------------------------------|
 
(0:51 - 1:14)
CHORUS:
             On do tzeli   do - be - ryotsya
E|-----------------|-----------------|-----------------|-----------------|
H|-----------------|-----------------|-----------------|-----------------|
G|-----------------|-----------------|-----------------|-----------------|
D|-----------------|-----------------|-----------------|-----------------|
A|-----------------|-----------------|--------------3-5-/8-------8--7--5-|
E|--3--------------|-----------------|-----------------|-----------------|
             po svoyey proy - dyot steze
E|-----------------|-----------------|-----------------|-----------------|
H|-----------------|-----------------|-----------------|-----------------|
G|-----------------|-----------------|-----------------|-----------------|
D|-----------------|-----------------|-----------------|-----------------|
A|-----------------|-----------------|--------------3-5-/8-------8--7--5-|
E|--3--------------|-----------------|-----------------|-----------------|
              On dotronet - sya   do  solntza
E|-----------------|-----------------|-----------------|-----------------|
H|-----------------|-----------------|-----------------|-----------------|
G|-----------------|-----------------|-----------------|-----------------|
D|-----------------|-----------------|-----------------|-----------------|
A|-----------------|-----------------|-5-------7-------|-8------10-------|
E|--3-------5------|-6-------8-------|-----------------|-----------------|
              Sokrushit pregrady     vse  -  e  -  e.
E|-----------------|-----------------|-----------------|-----------------|
H|-----------------|-----------------|-----------------|-----------------|
G|-----------------|-----------------|-----------------|-----------------|
D|--7-------8------|-10-----...........----------------|-----------------|
A|-----------------|-----------------|-----------------|-----------------|
E|-----------------|-----------------|-----------------|-----------------|

(1:14 - 1:38) VERSE 2
(1:38 - 2:02) CHORUS
(2:02 - 2:22) RIFF 1
(2:23 - 3:10)

SOLO:
E|------------------------------------------|-----------------------------------------|
H|------------------------------------------|-----------------------------------------|
G|--7-----------------------------------7---|-/10----------------------------------9--|
D|--------------------------------10--------|-(10)------------------------------------|
A|------------------------------------------|-----------------------------------------|
E|------------------------------------------|-----------------------------------------|


E|------------------------------------------|- A.H. ----------------------------------|
H|------------------------------------------|-<10>~~~~~~~~~~~~~~~~~~~~~~~-------------|
G|--12p9-10p9-12p9-10p9-12p9-10p9-12p10p9---|-----------------------------------------|
D|------------------------------------------|-----------------------------------------|
A|------------------------------------------|-----------------------------------------|
E|------------------------------------------|-----------------------------------------|

E|------------------------------------------|-----------------------------------------|
H|--11--10h11p10\8------10---8h10p8-\6------|--8---6h8p6-\5-------6---5h6p5-\3--------|
G|------------------------------------------|-----------------------------------------|
D|------------------------------------------|-----------------------------------------|
A|------------------------------------------|-----------------------------------------|
E|------------------------------------------|-----------------------------------------|


E|------------------------------------------|---------------------8---------9---------|
H|--------------------------------8---------|-10--------11----------------------------|
G|--/7---------9--------10------------------|-----------------------------------------|
D|------------------------------------------|-----------------------------------------|
A|------------------------------------------|-----------------------------------------|
E|------------------------------------------|-----------------------------------------|


E|--10~~~~~~~~~~~~~~~-----------------------|-----------------------------------------|
H|------------------------------------------|-----------------------------------------|
G|------------------------------------------|-----------------------------------------|
D|------------------------------------------|-----------------------------------------|
A|------------------------------------------|-----------------------------------------|
E|------------------------------------------|-----------------------------------------|


E|------------------------------------------|-----------12bend14----------------------|
H|------10---13p10--10----------------------|----10-----------------------------------|
G|-12bf-----------12--12p10-12p10--------10-|-12--------------------------------------|
D|-------------------------------12p10-12---|---------------------10------------------|
A|------------------------------------------|-----------------------------------------|
E|------------------------------------------|-----------------------------------------|


E|--?bend15---------------------------------|--?bend17--------------------------------|
H|------------------------------------------|-----------------------------------------|
G|------------------------------------------|-----------------------------------------|
D|---------------------12-------------------|---------------------15------------------|
A|------------------------------------------|-----------------------------------------|
E|------------------------------------------|-----------------------------------------|


E|------------------------------------------|-----------------------------------------|
H|------------------------------------------|-----------------------------------------|
G|------------------------------------------|-----------------------------------------|
D|-------------------------------10--...----|-----???---------------------------------|
A|--------------------10--12--13------------|-----------------------------------------|
E|-10--12--13--12--13-----------------------|-----------------------------------------|


E|--17~~~~~~~~~~~---------------------------|--17~~~~~~~~~~~--------------------------|
H|------------------------------------------|--18~~~~~~~~~~~--------------------------|
G|------------------------------------------|-----------------------------------------|
D|------------------------------------------|-----------------------------------------|
A|------------------------------------------|-----------------------------------------|
E|------------------------------------------|-----------------------------------------|


E|--17---17---17---17---20p18p17------------|-----------------------------------------|
H|--------------------------------18---18---|-18~~~~~~~~~~~~~~------------------------|
G|------------------------------------------|-----------------------------------------|
D|------------------------------------------|-----------------------------------------|
A|------------------------------------------|-----------------------------------------|
E|------------------------------------------|-----------------------------------------|


E|--15----13h15p13-\12----------------------|--/15----13----12------------------------|
H|----------------------13------------------|---------------------13------------------|
G|------------------------------------------|-----------------------------------------|
D|------------------------------------------|-----------------------------------------|
A|------------------------------------------|-----------------------------------------|
E|------------------------------------------|-----------------------------------------|


E|------------------------------------------|-----------------------------------------|
H|------------------------------------------|-----------------------------------------|
G|--7----5----------------------------------|-----------------------------------------|
D|------------8----7----8----7----5---------|-----------------------------------------|
A|-------------------------------------8----|-(8)-------------------------------------|
E|------------------------------------------|-----------------------------------------|


E|------------------------------------------|-----------------------------------------|
H|--------------------------------2h3p2h3---|--2---------3---------/8-----------------|
G|----------------------2h3p2h3-------------|-----------------------------------------|
D|------------2h3p2h3-----------------------|-----------------------------------------|
A|--3h5p3h5---------------------------------|-----------------------------------------|
E|---trill-----trill-----trill-----trill----|-----------------------------------------|


E|------------------------------------------|-----------------------------------------|
H|--8-6-------8-6-------8-6-------8-6-------|--8-6-------8-6--------------------------|
G|-------9-7-------9-7-------9-7-------9-7--|-------9-7-------9-7---------------------|
D|------------------------------------------|----------------------8------------------|
A|------------------------------------------|-----------------------------------------|
E|------------------------------------------|-----------------------------------------|


E|------------------------------------------|-----------------------------------------|
H|------------------------------------------|---------------------11--------13--------|
G|--------------------------------10--------|-12--------14----------------------------|
D|--10--------12--------14------------------|-----------------------------------------|
A|------------------------------------------|-----------------------------------------|
E|------------------------------------------|-----------------------------------------|


E|------------12--------13--------15--------|--17~~~~~~~~~~~~~~~~---------------------|
H|--15--------------------------------------|-----------------------------------------|
G|------------------------------------------|-----------------------------------------|
D|------------------------------------------|-----------------------------------------|
A|------------------------------------------|-----------------------------------------|
E|------------------------------------------|-----------------------------------------|


(3:10 - 3:31) RIFF 1
(3:31 - 3:54) VERSE 3
(3:54 - 4:18) CHORUS
(4:18 - 4:47) RIFF 1, finishing with


E|---------------------|-------------------|-------------------|
H|---------------------|-------------------|-------------------|
G|---------------------|-------------------|-------------------|
D|---------------------|-------------------|-7-----------------|
A|-10-9----9-7----7--5-|(5)-------7--------|-5-----------------|
E|--8-7----7-5----5--3-|(3)----------------|-5-----------------|

 






                       


Copyright © Музыкальный Портал на Куличках 1999-2007      music@kulichki.com


    Stolica.ru    
Реклама в Интернет