Stolica.ru Реклама на Куличках     

Аккорды песен:
A B C D E F G H I J K L M N O P Q R S T U V W X Y Z
АБВГДЕЖЗИКЛМНОПРСТУФХЦЧШЩЭЮЯ





Тексты песен :     A B C D E F G H I J K L M N O P Q R S T U V W X Y Z #

ПОЛНЫЙ СПИСОК ПЕСЕН ГРУППЫ




-->



АРИЯ   

Ария "Ангельская пыль"
----------------------
tabbed by Vladimir Gelfand ("Little Prince")

Tempo: moderately (142 bpm)

INTRO:

(0:01 - 0:26)

RIFF 1:

Gtr.1E|--------------------------|-------------------------|-------------------------|-------------------------|
Gtr.2H|--------------------------|-------------------------|-------------------------|-------------------------|
     G|--------------4-----------|-2-----------------------|----------2--4-----2-----|-------------------------|
     D|--2-----------5-----------|-4--5--4--5-----4--2-----|-2--4--5--4--5-----4--5--|-4--5--4-----2-----0-----|
     A|--2-----------------------|----7--5--7-----5--2-----|-2--5--7--------------7--|-5--7--5-----3-----2-----|
     E|--------------------------|-------------------------|-------------------------|-------------------------|


Gtr.1E|--------------------------|-------------------------|-------------------------|-------------------------|
Gtr.2H|--------------------------|-------------------------|-------------3-----------|-------------------------|
     G|--------------4-----------|-2-----------------------|----2--4--5--4-----5--4--|-2--4--2-----------------|
     D|--2-----------5-----------|-4--5--4--5-----4--2-----|-5--4--5--7--------7--5--|-4--5--4-----5-----4-----|
     A|--2-----------------------|----7--5--7-----5--2-----|-7-----------------------|-------------7-----5-----|
     E|--------------------------|-------------------------|-------------------------|-------------------------|


Gtr.1E|--------------------------|-------------------------|-------------------------|-------------------------|
Gtr.2H|--------------------------|-3-----------------------|-------------3-----------|-------------------------|
     G|--------------4-----------|-4--5--4--5-----4--2-----|----2--4--5--4-----5--4--|-2--4--2-----------------|
     D|--2-----------5-----------|----7--5--7-----5--4-----|-5--4--5--7--------7--5--|-4--5--4-----5-----4-----|
     A|--2-----------------------|-------------------------|-7-----------------------|-------------7-----5-----|
     E|--------------------------|-------------------------|-------------------------|-------------------------|


Gtr.1E|--------------------------|-------------------------|-------------------------|-------------------------|
Gtr.2H|--------------------------|-------------------------|-------------------------|-------------------------|
     G|--------------4-----------|-2-----------------------|----------2--4-----2-----|-------------------------|
     D|--2-----------5-----------|-4--5--4--5-----4--2-----|-2--4--5--4--5-----4--5--|-4--5--4-----2-----0-----|
     A|--2-----------------------|----7--5--7-----5--2-----|-2--5--7--------------7--|-5--7--5-----3-----2-----|
     E|--------------------------|-------------------------|-------------------------|-------------------------|

(0:27 - 0:41)

RIFF 2 (play 2 times):  (Gtr.3 is clean. Meanwhile, other guitars hold E5 and then fade out)

Gtr.3E||-------------------------|-------------------------|-------------------------|-------------------------||
     H||-0--------0--------0-----|-1--------1--------1-----|-0--------0--------0-----|-1--------1--------------||
     G||----0--------0--------0--|----0--------0--------0--|----0--------0--------0--|----0--------0-----------||
     D||-------2--------2--------|-------2--------2--------|-------2--------2--------|-------2-----------------||
     A||-------------------------|-------------------------|-------------------------|-------------------------||
     E||-------------------------|-------------------------|-------------------------|-------------------------||

(0:41 - 1:09)

VERSE 1:

VoiceE|--------------------------------------------------------------------------------------------------------|
     H|--------------------------------------------------------------------------------------------------------|
     G|--------------------------------------------------------------------------------------------------------|
     D|--2---2-2--0--2-2---2--0----2-----0-----2------------2---2-2--0-2---2---2--4----5-----4-----5-----------|
     A|----------------------------------------------2---------------------------------------------------------|
     E| Na krayu  obryva, za ko - to -  rym   vech- nost', ty stoish odin vo vlasti stran - nyh  grez      ----|
      |                          |                         |                         |                         |
Gtr.3E|--------------------------|-------------------------|-------------------------|-------------------------|
     H|--0--------0--------0-----|-1--------1--------1-----|-0--------0--------0-----|-1--------1--------------|
     G|-----0--------0--------0--|----0--------0--------0--|----0--------0--------0--|----0--------0-----------|
     D|--------2--------2--------|-------2--------2--------|-------2--------2--------|-------2-----------------|
     A|--------------------------|-------------------------|-------------------------|-------------------------|
     E|--------------------------|-------------------------|-------------------------|-------------------------|
 
VoiceE|--------------------------------------------------------------------------------------------------------|
     H|--------------------------------------------------------------------------------------------------------|
     G|-------------------------------------------------------------------------2--4----2----------------------|
     D|-2--2--2--0---2-2----2--0----2----0-----2-----4-----5-5--5----5--5--5-----------------------------------|
     A|--------------------------------------------------------------------------------------------------------|
     E| i, prostivshis' s mirom, hochesh' stat' bes - pech- nym,  poigrat' s ognem nezdeshnih groz.        ------------|
      |                          |                         |                         |                         |
Gtr.3E|--------------------------|-------------------------|-------------------------|-------------------------|
     H|--0--------0--------0-----|-1--------1--------1-----|-0--------0--------0-----|-3--------3--------------|
     G|-----0--------0--------0--|----0--------0--------0--|----0--------0--------0--|----2--------2-----------|
     D|--------2--------2--------|-------2--------2--------|-------0--------0--------|-------0-----------------|
     A|--------------------------|-------------------------|-------------------------|-------------------------|
     E|--------------------------|-------------------------|-------------------------|-------------------------|
 
VoiceE|--------------------------------------------------------------------------------------------------------|
     H|--------------------------------------------------------------------------------------------------------|
     G|--------------------------------------------------------------------------------------------------------|
     D|--2-2-2---0----2---2---2---0--2---0-----2-------------2--2----2-0--2----2--2--4-5-----4-----5-----------|
     A|----------------------------------------------2---------------------------------------------------------|
     E| Nakonec ty schastliv kak nikto  na   sve  - te,      angel'skaya pyl' tebya  uno  - sit  vverh.     ---|
      |                          |                         |                         |                         |
Gtr.3E|--------------------------|-------------------------|-------------------------|-------------------------|
     H|--0--------0--------0-----|-1--------1--------1-----|-0--------0--------0-----|-1--------1--------------|
     G|-----0--------0--------0--|----0--------0--------0--|----0--------0--------0--|----0--------0-----------|
     D|--------2--------2--------|-------2--------2--------|-------2--------2--------|-------2-----------------|
     A|--------------------------|-------------------------|-------------------------|-------------------------|
     E|--------------------------|-------------------------|-------------------------|-------------------------|
 
VoiceE|--------------------------------------------------------------------------------------------------------|
     H|--------------------------------------------------------------------------------------------------------|
     G|------------------------------------------------------------------------2----4----2---------------------|
     D|--2---2-2---0---2---2-2--0--2-----0-----2----4-------5--5---5-5-5----5----------------------------------|
     A|--------------------------------------------------------------------------------------------------------|
     E| Tol'ko ey podvlastny i vostorg   i    ve - ter, v zhidkih nebesah zvuchit tvoy smeh.        -----------|
      |                          |                         |                         |                         |
Gtr.3E|--------------------------|-------------------------|-------------------------|-------------------------|
     H|--0--------0--------0-----|-1--------1--------1-----|-0--------0--------0-----|-3--------3--------------|
     G|-----0--------0--------0--|----0--------0--------0--|----0--------0--------0--|----2--------2-----------|
     D|--------2--------2--------|-------2--------2--------|-------0--------0--------|-------0-----------------|
     A|--------------------------|-------------------------|-------------------------|-------------------------|
     E|--------------------------|-------------------------|-------------------------|-------------------------|

(1:09 - 1:22)

BRIDGE:

VoiceE|--------------------------------------------------------------------------------------------------------|
     H|--------------------------------------------------------------------------------------------------------|
     G|--5-----------5-------------4-----------2-------------4-------------------------------------------------|
     D|--------------------------------------------------------------------------------------------------------|
     A|--------------------------------------------------------------------------------------------------------|
     E|- An    -    gel's    -    ka     -    ya            pyl'                           --------------------|
      |                          |                         |                         |                         |
Gtr.1E|--------------------------|-------------------------|-------------------------|-------------------------|
  +  H|--------------------------|-------------------------|-------------------------|-------------------------|
Gtr.2G|--------------------------|-------------2-----------|----------2--4--5--4--2--|-4--2--------------------|
     D|--------------5-----------|-4-----------4-----------|-2--2--5-----------------|-------5--4--5--4--2-----|
     A|--3-----------7-----------|-5-----------------------|-2-----------------------|----------------------5--|
     E|--5-----------------------|-------------------------|-0-----------------------|-------------------------|
 
VoiceE|--------------------------------------------------------------------------------------------------------|
     H|--------------------------------------------------------------------------------------------------------|
     G|--5-----------5-------------4-----------2-------------4-------------------------------------------------|
     D|--------------------------------------------------------------------------------------------------------|
     A|--------------------------------------------------------------------------------------------------------|
     E|- E     -    to            son          i            by      -      yyl'!                           ----|
      |                          |                         |                         |                         |
Gtr.1E|--------------------------|-------------------------|-------------------------|-------------------------|
     H|--------------------------|-------------------------|-------------------------|-------------------------|
     G|--------------------------|-------------2-----------|----------------------2--|(2)----2-----------------|
     D|--------------5-----------|-4-----------4-----------|-4-----------4--------4--|(4)----4-----5-----4-----|
     A|--3-----------7-----------|-5-----------------------|-2--2--2--2--2--2--2-----|-------------5-----4-----|
     E|--5-----------------------|-------------------------|-------------------------|-------------3-----2-----|

(1:22 - 1:49)

CHORUS:

VoiceE|-------------------------------------------------------------------------------------------------------|
     H|-------------------------------------------------------------------------------------------------------|
     G|-------------------------------------------------------------------------------------------------------|
     D|------5------4-----2-------------5-----5-------------------5-----4-----5-------------------------------|
     A|-------------------------------------------------------------------------------5-----------------------|
     E|-    Be  -  zu  - metz,         beg - letz,               do  - ro  - gi      neeeeeeeeeeeeeeeeet.   --|
      |                         |                         |                         |                         |
Gtr.1E|-------------------------|-------------------------|-------------------------|-------------------------|
     H|-------------------------|-------------------------|-------------------------|-------------------------|
     G|-------------------------|-5-----------------------|-------------------------|----------0--2--0--------|
     D|-2-----------------------|-5-----------------------|-5-----------------------|-0--0h2h4-----------4--0--|
     A|-2-----------------------|-3-----------------------|-5-----------------------|-------------------------|
     E|-0-----------------------|-------------------------|-3-----------------------|-------------------------|
      |                         |                         |                         |                         |
Gtr.2E|-------------------------|-------------------------|----------5--7--5--------|-------------5-----------|
     H|----------7--8--7--------|----------7--8--7--------|-8-----8-----------8--7--|-------7--8-----8--7-----|
     G|-------9-----------9--7--|-9-----9-----------9--7--|----7--------------------|-7--7-----------------7--|
     D|----9--------------------|----9--------------------|-------------------------|-------------------------|
     A|-7-----------------------|-------------------------|-------------------------|-------------------------|
     E|-------------------------|-------------------------|-------------------------|-------------------------|
 
VoiceE|-------------------------------------------------------------------------------------------------------|
     H|-------------------------------------------------------------------------------------------------------|
     G|-------------------------------------------------------------------------------------------------------|
     D|-------5-----4-----2-------------5-----4-----5-------7-------------------------------------------------|
     A|-------------------------------------------------------------------------------------------------------|
     E|--    Ty    vi  - dish'         ne  - ver - nyy    sve     -     e      -      e     -     e    -   ---|
      |                         |                         |                         |                         |
Gtr.1E|-------------------------|-------------------------|-------------------------|-------------------------|
     H|-------------------------|-------------------------|-------------------------|-------------------------|
     G|-------------------------|-5-----------------------|-7-----------7-----------|-7-----7-----7-----------|
     D|-2-----------------------|-5-----------------------|-7-----------7-----------|-7-----7-----7-----------|
     A|-2-----------------------|-3-----------------------|-5-----------5-----------|-5-----5-----5-----------|
     E|-0-----------------------|-------------------------|-------------------------|-------------------------|
      |                         |                         |                         |                         |
Gtr.2E|-------------------------|-------------------------|-------------5-----------|-------------5-----------|
     H|----------7--8--7--------|----------7--8--7--------|-7-----7--8-----8--7-----|-7-----7--8-----8--7-----|
     G|-9-----9-----------9--7--|-9-----9-----------9--7--|----7-----------------7--|----7-----------------7--|
     D|----9--------------------|----9--------------------|-------------------------|-------------------------|
     A|-------------------------|-------------------------|-------------------------|-------------------------|
     E|-------------------------|-------------------------|-------------------------|-------------------------|
 
VoiceE|-------------------------------------------------------------------------------------------------------|
     H|-------------------------------------------------------------------------------------------------------|
     G|-4-------5---4-----2-------------5-----5-------------------5-----4-----5-------------------------------|
     D|-------------------------------------------------------------------------------5-----------------------|
     A|-------------------------------------------------------------------------------------------------------|
     E| et.   Tvoy  an - gel           za - zheg                 mi  - razh   og  - nyaaaaaaaaaaaaaaaaaaa  ---|
      |                         |                         |                         |                         |
Gtr.1E|-------------------------|-------------------------|-------------------------|-------------------------|
     H|-------------------------|-------------------------|-------------------------|-------------------------|
     G|-2-----------------------|-------------------------|-5-----------------------|-------------------------|
     D|-2-----------------------|-3-----------------------|-5-----------------------|-------------------------|
     A|-0-----------------------|-3-----------------------|-3-----------------------|-------2--3--5--3--2-----|
     E|-------------------------|-1-----------------------|-------------------------|-3--3-----------------3--|
      |                         |                         |                         |                         |
Gtr.2E|-------------------------|-------------------------|-------------------------|-------------------------|
     H|-------------------------|-------------------------|-------------5-----------|-------------------------|
     G|----------4--5--4--------|----------4--5--4--------|-5-----5--7-----7--5--4--|-------4--5--7--5--4-----|
     D|-7-----7-----------7--5--|-7-----7-----------7--5--|----5--------------------|-5--5-----------------5--|
     A|----7--------------------|----7--------------------|-------------------------|-------------------------|
     E|-------------------------|-------------------------|-------------------------|-------------------------|
 
VoiceE|-------------------------------------------------------------------------------------------------------|
     H|-------------------------------------------------------------------------------------------------------|
     G|-------5-----4-----2-------------5-----4-----5-------7-------------------------------------------------|
     D|-------------------------------------------------------------------------------------------------------|
     A|-------------------------------------------------------------------------------------------------------|
     E|--     on   ho - chet            u  - bit'  te  -  byaaaaaaaaaaaaaaaaaaaaaaaaaaaaaaaaaaaa !  ----------|
      |                         |                         |                         |                         |
Gtr.1E|-------------------------|-------------------------|-------------------------|-------------------------|
     H|-------------------------|-------------------------|-------------------------|-------------------------|
     G|-2-----------------------|-------------------------|-------------------------|-------------------------|
     D|-2-----------------------|-3-----------------------|-5-----------5-----------|-5-----5-----5-----------|
     A|-0-----------------------|-3-----------------------|-5-----------5-----------|-5-----5-----5-----------|
     E|-------------------------|-1-----------------------|-3-----------3-----------|-3-----3-----3-----0--0--|
      |                         |                         |                         |                         |
Gtr.2E|-------------------------|-------------------------|-------------------------|-------------------------|
     H|-------------------------|-------------------------|-------------------------|-------------------------|
     G|----------4--5--4--------|----------4--5--4--------|-4-----4--5--7--5--4-----|-4-----4--5--7--5--4-----|
     D|-7-----7-----------7--5--|-7-----7-----------7--5--|----5-----------------5--|----5-----------------5--|
     A|----7--------------------|----7--------------------|-------------------------|-------------------------|
     E|-------------------------|-------------------------|-------------------------|-------------------------|

(1:49 - 2:02) Play RIFF 2

(2:03 - 2:31) VERSE 2

(2:31 - 2:44) BRIDGE

(2:44 - 3:10) CHORUS

(3:11 - 3:37) Play RIFF 1

SOLO:

(3:37 - 4:03)

Part A: (play this *4 times) (Lead: start with tremolo effects ad/lib)

Gtr.1E||-------------------------|-------------------------|
     H||-------------------------|-------------------------|
     G||-------------R-----------|-------------R-----------|
     D||-------2--4--E-----------|-------2--5--E-----------|
     A||----2--------S-----------|----2--------S-----------|
     E||-0-----------T-----------|-0-----------T-----------|


Gtr.1E|--------------------------|-------------------------||
     H|--------------------------|-------------------------||
     G|-----------2--R-----------|-------------------------||
     D|--------2-----E-----------|-------2--0--------------||
     A|-----2--------S-----------|----2--------------------||
     E|--0-----------T-----------|-0-----------------------||

(4:03 - 4:29)

Part B (Terentiev's lead):

Lead E|-12~~~~~~~~~~~~~~~~~~~~~~~~~~~~~~~~~~~~~~|-(12)~~~~~~~~~~~~~~~~~~~~~~~~~~----------|
     H|-----------------------------------------|-----------------------------------------|
     G|-----------------------------------------|-----------------------------------------|
     D|-----------------------------------------|-----------------------------------------|
     A|-----------------------------------------|-----------------------------------------|
     E|-----------------------------------------|-----------------------------------------|
      |                                         |                                         |
Gtr.1E|-----------------------------------------|-----------------------------------------|
     H|-----------------------------------------|-----------------------------------------|
     G|-----------------------------------------|-----------------------------------------|
     D|-0--h-2---------2--------------2---------|-5--------------2--------------2---------|
     A|-0--h-2---------2--------------2---------|-5--------------2--------------2---------|
     E|-----------0--------------0--------------|------0----0--------------0--------------|
                  .              .                     .    .              .
 
          T  T   T  T       T 
Lead E|-12-15p12-15p11-15p10-19p10---------------------------------|-----------------------------------------|
     H|----------------------12p11-15p11p10-11p10-----11------|-----------------------------------------|
     G|-------------------------------------------12-----12bend14~~~~~~~~~~~~~~~~~~~~-----------------|
     D|-----------------------------------------|-----------------------------------------|
     A|-----------------------------------------|-----------------------------------------|
     E|-----------------------------------------|-----------------------------------------|
      |                                         |                                         |
Gtr.1E|-----------------------------------------|-----------------------------------------|
     H|-----------------------------------------|-----------------------------------------|
     G|-----------------------------------------|-----------------------------------------|
     D|-7--------------2--------------2---------|-5---/7----7----7---------5--------------|
     A|-7--------------2--------------2---------|-3---/5----5----5---------3----7---------|
     E|------0----0--------------0--------------|-------------------------------5---------|
             .    .              .
 
Lead E|------------15h17p15--------------------------------------|-----------------------------------------|
     H|------15b16---------17p16p15\13---13--15bend17rel-15--p13-|-----------------------------------------|
     G|-14h17----------------------14------------------------|-14-12---------12b14rel12----------------|
     D|------------------------------------------------------|------14-11---------------14~~~~/\/\/\---|
     A|------------------------------------------------------|-----------12----------------- pedal ----|
     E|-----------------------------------------|-----------------------------------------|
      |                                         |                                         |
Gtr.1E|-----------------------------------------|-----------------------------------------|
     H|-----------------------------------------|-----------------------------------------|
     G|-----------------------------------------|-----------------------------------------|
     D|-0--h-2---------2--------------2---------|-5--------------2--------------2---------|
     A|-0--h-2---------2--------------2---------|-5--------------2--------------2---------|
     E|-----------0--------------0--------------|------0----0--------------0--------------|
 
Lead E|-------------------------------------------------------|-----------------------------------------|
     H|-------------- T --------------------------------------|-----------------------------------------|
     G|----------9h11-14p12p11p9-------- T --------------------|-----------------------------------------|
     D|-10h12h13---------------12p10-12-14p12p10------------ T |-----------------------------------------|
     A|-----------------------------------------12-10-9-12--14p12p10p9-----------------(???)--------------|
     E|-------------------------------------------------------|-----10~~~~~~----------------------------|
      |                                         |                                         |
Gtr.1E|-----------------------------------------|-----------------------------------------|
     H|-----------------------------------------|-----------------------------------------|
     G|-----------------------------------------|-----------------------------------------|
     D|-7--------------2--------------2---------|-5---/7----7----7---------5--------------|
     A|-7--------------2--------------2---------|-3---/5----5----5---------3----7---------|
     E|------0----0--------------0--------------|-------------------------------5---------|
 
Lead E|-19--------19~~~~~~~~~~~~~~~~~~~~~~~~~~~~|-(19)~~~~~~~~~~~~~~~~~~~~~---------------|
     H|-----------------------------------------|-----------------------------------------|
     G|-----------------------------------------|-----------------------------------------|
     D|-----------------------------------------|-----------------------------------------|
     A|-----------------------------------------|-----------------------------------------|
     E|-----------------------------------------|-----------------------------------------|
      |                                         |                                         |
Gtr.1E|-----------------------------------------|-----------------------------------------|
     H|-----------------------------------------|-----------------------------------------|
     G|-----------------------------------------|-----------------------------------------|
     D|-0--h-2---------2--------------2---------|-5--------------2--------------2---------|
     A|-0--h-2---------2--------------2---------|-5--------------2--------------2---------|
     E|-----------0--------------0--------------|------0----0--------------0--------------|
 
Lead E|-17~~~~~~~~~~~~~~~~~~~~~~~~~~~~----------|-15--12----------------------------------|
     H|-----------------------------------------|--------15-12----------------------------|
     G|-----------------------------------------|---------------15-14-12------------------|
     D|-----------------------------------------|-------------------------14b16r14b16-\\--|
     A|-----------------------------------------|-------------------------------------sl--|
     E|-----------------------------------------|------------------------------------down-|
      |                                         |                                         |
Gtr.1E|-----------------------------------------|-----------------------------------------|
     H|-----------------------------------------|-----------------------------------------|
     G|-----------------------------------------|-----------------------------------------|
     D|-7--------------2--------------2---------|-5---/7----7----7---------5--------------|
     A|-7--------------2--------------2---------|-3---/5----5----5---------3----7---------|
     E|------0----0--------------0--------------|-------------------------------5---------|
 
                                                          T      T           T     T     T          T
Lead E|-------------------------------------------------|---------------------10/11-15p12p11p10----------------------------------|
     H|-------------------------------------------------|-15p10h13-15p10h13--------------------15p13p10-15p13p10\8---------------|
     G|-----------------------5h7p5---7-----T----T----10h12----------------------------------------------------------9p7-12p9p7-|
     D|-----------------3h5/7-----------7/10-17p10h12-17p10h12---|---------------------------------------------------------------------------|
     A|-------5-0h3h4h5---------------------------------|---------------------------------------------------------------------------|
     E|-------------------------------------------------|---------------------------------------------------------------------------|
      |                                                 |                                                 |
Gtr.1E|-------------------------------------------------|-------------------------------------------------|
     H|-------------------------------------------------|-------------------------------------------------|
     G|-------------------------------------------------|-------------------------------------------------|
     D|-0--h--2-----------2-----------------2-----------|-5-----------------2-----------------2-----------|
     A|-0--h--2-----------2-----------------2-----------|-5-----------------2-----------------2-----------|
     E|-------------0-----------------0-----------------|-------0-----0-----------------0-----------------|
 
Lead E|-----------------------------------------|-----------------------------------------|
     H|-----------------------------------------|-----------------------------------------|
     G|--------------------------7bend8rel 7p5--|-7----5----------------------------------|
     D|-10p7-10p7-------------------------------|-----------4----4~~~~~~~~~~--------------|
     A|-----------6-----------------------------|-----------------------------------------|
     E|-----------------------------------------|-----------------------------------------|
      |                                         |                                         |
Gtr.1E|-----------------------------------------|-----------------------------------------|
     H|-----------------------------------------|-----------------------------------------|
     G|-----------------------------------------|-----------------------------------------|
     D|-7--------------2--------------2---------|-5---/7----7----7---------5--------------|
     A|-7--------------2--------------2---------|-3---/5----5----5---------3----7---------|
     E|------0----0--------------0--------------|-------------------------------5---------|

(4:30 - 4:47)

Part C (Holstinin's lead):

Lead E|--------------------/15--------14---12---|-----------------------------------------|
     H|-----------------------------------------|-10--------------------------------------|
     G|-----------------------------------------|---------------------12------------------|
     D|-----------------------------------------|-----------------------------------------|
     A|-----------------------------------------|-----------------------------------------|
     E|-----------------------------------------|-----------------------------------------|
      |                                         |                                         |
Gtr.1E|-----------------------------------------|-----------------------------------------|
     H|-----------------------------------------|-----------------------------------------|
     G|-----------------------------------------|---------------------2-------------------|
     D|---------------------5-------------------|-4-------------------4-------------------|
     A|-3-------------------7-------------------|-5---------------------------------------|
     E|-5---------------------------------------|-----------------------------------------|
 
Lead E|---------------------15------------------|-14------------------12------------------|
     H|------12---13---12--------12---13---12---|------12---13---12--------12---13---12---|
     G|-----------------------------------------|-----------------------------------------|
     D|-----------------------------------------|-----------------------------------------|
     A|-----------------------------------------|-----------------------------------------|
     E|-----------------------------------------|-----------------------------------------|
      |                                         |                                         |
Gtr.1E|-----------------------------------------|-----------------------------------------|
     H|-----------------------------------------|-----------------------------------------|
     G|----------------2----4----5----4----2----|-4----2----------------------------------|
     D|-2----2----5-----------------------------|-----------5----4----5----4----2---------|
     A|-2---------------------------------------|------------------------------------5----|
     E|-0---------------------------------------|-----------------------------------------|
 
Lead E|-----------------------------------------|-----------------------------------------|
     H|-10~~~~~~~~~~~~~~--------------8----7----|-----------------------------------------|
     G|-----------------------------------------|-7bend9release7------7~~~~~~~~~----------|
     D|-----------------------------------------|-----------------------------------------|
     A|-----------------------------------------|-----------------------------------------|
     E|-----------------------------------------|-----------------------------------------|
      |                                         |                                         |
Gtr.1E|-----------------------------------------|-----------------------------------------|
     H|-----------------------------------------|-----------------------------------------|
     G|-----------------------------------------|---------------------2-------------------|
     D|---------------------5--------------4----|-4-------------------4-------------------|
     A|-3-------------------7-------------------|-5---------------------------------------|
     E|-5---------------------------------------|-----------------------------------------|
 
Lead E|-----------------------------------------|-------------12----12-15-12-15-17-15-17--|
     H|----------8-----8--10--8--10--12--10--12-|--15--12--15----15-----------------------|
     G|-9--7--9-----9---------------------------|-----------------------------------------|
     D|-----------------------------------------|-----------------------------------------|
     A|-----------------------------------------|-----------------------------------------|
     E|-----------------------------------------|-----------------------------------------|
      |                                         |                                         |
Gtr.1E|-----------------------------------------|-----------------------------------------|
     H|-----------------------------------------|-----------------------------------------|
     G|-----------------------------------------|-----------------------------------------|
     D|-4------------------4--------------------|--4-------------------4------------------|
     A|-2------------------2--------------------|--2-------------------2------------------|
     E|-----------------------------------------|-----------------------------------------|
 
Lead E|--17bend19-----------17bend19------------|-17bend19--------------------------------|
     H|-----------------------------------------|-----------------------------------------|
     G|-----------------------------------------|-----------------------------------------|
     D|-----------------------------------------|-----------------------------------------|
     A|-----------------------------------------|-----------------------------------------|
     E|-----------------------------------------|-----------------------------------------|
      |                                         |                                         |
Gtr.1E|-----------------------------------------|-----------------------------------------|
     H|-----------------------------------------|-----------------------------------------|
     G|-----R-----------------------------------|-----------------------------------------|
     D|--4--E-----------------------------------|---------------------5---------4---------|
     A|--2--S-----------------------------------|---------------------5---------4---------|
     E|-----T-----------------------------------|---------------------3---------2---------|

(4:47 - 5:13) CHORUS

(5:14 - 5:40) CHORUS one more time

(5:40 - 5:56) RIFF 2


Ария "Ангельская пыль"
----------------------
Подбор by Mikle Kalmykov (2:5020/1740.17)

Вступление:

эл. гитара 1:
1|-------------------------------------------------------------------|
2|-------------------------------------------------------------------|
3|----------------------------4--5-4---------------------------------|
4|-4---9---7-5-4-5--4---4-5-7--------7-5-4---4-----------------------|
5|-2---7-------------7-7-------------------7-------------------------|
6|-------------------------------------------------------------------|

эл. гитара 2:
1|-------------------------------------------------------------------|
2|-------------------------------------------------------------------|
3|----------------------------4--5-4---------------------------------|
4|-4---9---7-5-4-5--4---4-5-7--------7-5-4---4-----------------------|
5|-2---7-------------7-7-------------------7-------------------------|
6|-------------------------------------------------------------------|

эл. гитара 1:
1|-------------------------------------------------------------------|
2|-------------------------------------------------------------------|
3|----------------------------4--5-4---------------------------------|
4|-4---9---7-5-4-5--4---4-5-7--------7-5-4---4-----------------------|
5|-2---7-------------7-7-------------------7-------------------------|
6|-------------------------------------------------------------------|

эл. Гитара 2:
1|-------------------------------------------------------------------|
2|-------------------------------------------------------------------|
3|----------------------------7--8-7---------------------------------|
4|-4---9---7-5-4-5--4---7-8-10-------10-8-7---7-----------------------|
5|-2---7-------------7-10-------------------10------------------------|
6|-------------------------------------------------------------------|

эл. гитара 1:
1|-------------------------------------------------------------------|
2|---------------------------5-6-5-----------------------------------|
3|-------7-5-4-5-4-----4-5-7-------7-5-4---4-------------------------|
4|-4--9------------7-7-------------------7---------------------------|
5|-2--7--------------------------------------------------------------|
6|-------------------------------------------------------------------|

эл. гитара 2:
1|-------------------------------------------------------------------|
2|---------------------------2-3-2-----------------------------------|
3|-------7-5-4-5-4-----1-2-4-------4-2-1---1-------------------------|
4|-4--9------------7-4-------------------4---------------------------|
5|-2--7--------------------------------------------------------------|
6|-------------------------------------------------------------------|

эл. гитара 1:
1|-------------------------------------------------------------------|
2|-------------------------------------------------------------------|
3|----------------------------4--5-4---------------------------------|
4|-4---9---7-5-4-5--4---4-5-7--------7-5-4---4-----------------------|
5|-2---7-------------7-7-------------------7-------------------------|
6|-------------------------------------------------------------------|

эл. гитара 2:
1|-------------------------------------------------------------------|
2|-------------------------------------------------------------------|
3|----------------------------4--5-4---------------------------------|
4|-4---9---7-5-4-5--4---4-5-7--------7-5-4---4-----------------------|
5|-2---7-------------7-7-------------------7-------------------------|
6|-------------------------------------------------------------------|

Основная часть:

ак. гитара 1:
1|-------------------------------------------------------------------|
2|-0-----0-----0----1-----1----1---0-----0-----0----1----1-----------|
3|---0-----0-----0----0-----0----0---0-----0-----0----0----0---------|
4|-----2-----2----------2-----2--------2-----2----------2------------|
5|-------------------------------------------------------------------|
6|-------------------------------------------------------------------|

эл. гитара 2:
1|-------------------------------------------------------------------|
2|-------------------------------------------------------------------|
3|-2~------------2-3~-----------3-2~------------2-3~-----------------|
4|-------------------------------------------------------------------|
5|-------------------------------------------------------------------|
6|-------------------------------------------------------------------|


ак. гитара 1:
1|-------------------------------------------------------------------|
2|-0-----0-----0----1-----1----1---0-----0-----0----1----1-----------|
3|---0-----0-----0----0-----0----0---0-----0-----0----0----0---------|
4|-----2-----2----------2-----2--------2-----2----------2------------|
5|-------------------------------------------------------------------|
6|-------------------------------------------------------------------|

эл. гитара 2:
1|-------------------------------------------------------------------|
2|-------------------------------------------------------------------|
3|-2~------------2-3~-----------3-2~------------2-3~-----------------|
4|-------------------------------------------------------------------|
5|-------------------------------------------------------------------|
6|-------------------------------------------------------------------|

ак. гитара:
   Em               C/E                  Em         Am6/E
1|-------------------------------------------------------------------|
2|-0-----0-----0----1-----1----1---0-----0-----0----1----1-----------|
3|---0-----0-----0----0-----0----0---0-----0-----0----0----0---------|
4|-----2-----2----------2-----2--------2-----2----------2------------|
5|-------------------------------------------------------------------|
6|-------------------------------------------------------------------|
Hа  краю обрыва, за которым вечность,
Ты стоишь один во власти странных грез

ак. гитара:
   Em               C/E           G                 D
1|-------------------------------------------------------------------|
2|-0-----0-----0----1-----1----1---0-----0-----0----3----3-----------|
3|---0-----0-----0----0-----0----0---0-----0-----0----2----2---------|
4|-----2-----2----------2-----2--------0-----0----------0------------|
5|-------------------------------------------------------------------|
6|-------------------------------------------------------------------|
И, простившись с миром, хочешь стать беспечным,
Поиграть с огнем нездешних гроз.


Hаконец ты счастлив как никто на свете,
Ангельская пыль тебя уносит вверх.
Только ей подвластны и восторг, и ветер,
В жидких небесах звучит твой смех.


Припев.

эл гитара 1:
    D   C   Em
1|-------------------------------------------------------------------|
2|-------------------------------------------------------------------|
3|--5-5-7-7-9-------5-4-----4----------------------------------------|
4|--5-5-7-7-9-4-5-7-----7-5---7-5-4-7-5-4----------------------------|
5|--3---5---7-----------------------------7--------------------------|
6|-------------------------------------------------------------------|

эл гитара 2:
1|-------------------------------------------------------------------|
2|-------------------------------------------------------------------|
3|--5-5-7-7-9-------8-7-----8----------------------------------------|
4|--5-5-7-7-9-7-8-10---10-8--10-8-7-10-8-7---------------------------|
5|--3---5---7------------------------------10------------------------|
6|-------------------------------------------------------------------|

   Ангельская пыль.

эл гитара 1:
    D   C   B7
1|-------------------------------------------------------------------|
2|-------------------------------------------------------------------|
3|--5-5-7-7-4-------4-------4----------------------------------------|
4|--5-5-7-7-4-------4-------4----------------------------------------|
5|--3---5---2-2-2-2-2-2-2-2-2----------------------------------------|
6|-----------------------------3-2-----------------------------------|


   Это сон и быль!
эл. гитара 1:
   Em          C           G        D
1|-------------------------------------------------------------------|
2|-------------------------------------------------------------------|
3|-------------------------------------------2-----------------------|
4|-----------------------------------0-2-4-5---5-4-2-----------------|
5|-------------------------------------------------------------------|
6|-------------------------------------------------------------------|

эл. гитара 2:

1|-------------------------------------------------------------------|
2|-------------------------------------------------------------------|
3|---------------------------------------2-4-5-4-2-------------------|
4|-2-4-5-4-2---2-4-5-4-2---4-5-7-5-4-4-5-----------4-----------------|
5|-----------5-----------5-------------------------------------------|
6|-------------------------------------------------------------------|

   Безумец, беглец - дороги нет

Эл. гитара 1
    Em                   C             D
1|--------------------------------------------------------------------|
2|--------------------------------------------------------------------|
3|----------------------------------------------2---------------------|
4|--------------------------------------0-2-4-5-----------------------|
5|--------------------------------------------------------------------|
6|--------------------------------------------------------------------|

Эл. гитара 2:

1|-------------------------------------------------------------------|
2|-------------------------------------------------------------------|
3|-------------------------------------------------------------------|
4|--2-4-5-4-2---2-4-5-4-2---4-5-7-5-4-------4-5-7--------------------|
5|------------5-----------5-----------7-5-7--------------------------|
6|-------------------------------------------------------------------|

   Ты видишь неверный свет.

Эл. гитара 1:
    Am         F           C           G
1|-------------------------------------------------------------------|
2|-------------------------------------------------------------------|
3|-------------------------------------------------------------------|
4|--------------------------------------------2-3-2------------------|
5|--------------------------------------2-3-5-------5-3--------------|
6|-------------------------------------------------------------------|

Эл. гитара 2:

1|-------------------------------------------------------------------|
2|-------------------------------------------------------------------|
3|-------------------------------------------------------------------|
4|-------------------------------------------------------------------|
5|--0-2-3-2-0---0-2-3-2-0---2-3-5-3-2-0---0-2-3-2-0------------------|
6|------------3-----------3-------------3-----------3-1--------------|


  Твой ангел зажег мираж огня.

Эл. Гитара 1:
     Am       F             G
1|-------------------------------------------------------------------|
2|-------------------------------------------------------------------|
3|-------------------------------------------------------------------|
4|-------------------------------------------------------------------|
5|-------------------------------------------------------------------|
6|-------------------------------------------------------------------|

1|-------------------------------------------------------------------|
2|-------------------------------------------------------------------|
3|-------------------------------------------------------------------|
4|--------------------------5-------5-------5------------------------|
5|--0-2-3-2-0---0-2-3-2-0---5-5-5-5-5-5-5-5-5------------------------|
6|------------3-----------3-3-3-3-3-3-3-3-3-3------------------------|

   Он хочет убить тебя...


Hа краю обрыва песня неземная,
Музыка богов и голоса богинь.
Ты паришь над миром, но торговец раем
Вынет душу из тебя за героин.


Ты устал быть птицей и сорвался камнем.
Рухнул с высоты, спасаясь от судьбы.
Hа краю обрыва вновь летят на пламя
Сотни мотыльков-самоубийц.

Припев.

P.S.
Если песня играется одной гитарой, то соответственно в надо смотреть
табулатры для 1-й гитары. Где нету табов, а стоят аккорды, играется по
аккордам.

 






                       


Copyright © Музыкальный Портал на Куличках 1999-2007      music@kulichki.com


    Stolica.ru    
Реклама в Интернет