Stolica.ru Реклама на Куличках     

Аккорды песен:
A B C D E F G H I J K L M N O P Q R S T U V W X Y Z
АБВГДЕЖЗИКЛМНОПРСТУФХЦЧШЩЭЮЯ





Тексты песен :     A B C D E F G H I J K L M N O P Q R S T U V W X Y Z #

ПОЛНЫЙ СПИСОК ПЕСЕН ГРУППЫ




-->



АРИЯ   


          Кто ты    (Ария)
          ~~~~~~
 Подбор: Roman Alampiev (2:452/23.38)

            I

  Am Em D  C    Am Em D   C  D C
 Снова полночь,слышу чей-то голос,
  Am Em D C Am Em D  C Em  C Em
 Шепчет имя,манит и зовет меня.
Em7     D C                    Em7
 И белым   туманом на стеклах чей-то вздох оставлен.
Em7      D C                      Em
 И гаснет   вдруг пламя,хотя нет ветра.
 Am Em D   C   Am Em   D  C Em C  Em
 Вижу тень я,кто-то в черном у окна...

          Припев:

   C  H7     Em
 Кто ты,наказанье или милость?
   C  H7     Em
 Кто ты,отрекаться не спеши.
  C H7       G         C
 Может за душой моей явилась?
  G      C     Em
 Только нет души...

            II
 Проклят,брошен,словно камень с неба,
 Страшно падать,только ждать еще страшней!
 Все помнить и жаждать любви,но быть распятым ею.
 И мчаться к безумью,услышав голос.
 Ровно в полночь снова тень идет ко мне...

          Припев:
           solo
          Припев:
---------------------------------------------------------------------
Hемного табов:

  Em7          D   C                              Em7
 1|-3----3-----2---0----0-------------------------3-----2-0-----------
 2|---0----0-----3---1----1---4---1-----1-----4-----0-------4-1-------
 3|-----0----0---------0----0---0---0-----0-----0-----0---------0-----
 4|-2----------0----------------------2-----2-----2-------------------
 5|----------------3--------------3-----------------------------------
 6|-------------------------------------------------------------------
       И белым      туманом          на стеклах  чей-то вздох оставлен

  Em7          D   C                              Em
 1|-3----3-----2---0----0-------------------------0-------------------
 2|---0----0-----3---1----1---4---1-----1-----4-----0---4-1-0---------
 3|-----0----0---------0----0---0---0-----0-----0-----0-------1-0-----
 4|-2----------0----------------------2-----2-----2-------------------
 5|----------------3--------------3-----------------------------------
 6|-------------------------------------------------------------------
       И гаснет     вдруг пламя,   хотя нет      ветра...


В конце каждого куплета Ем:
  Em
 1|-0-------------
 2|---0-----------
 3|-----0---------
 4|-------2-0p2---
 5|---------------
 6|-------------0-





                   КТО ТЫ?  (2-й вариант)
                    (Терентьев - Пушкина)

Подбор табов и аккордов: Macknar, macknar@mail.ru

1|--------------------------------------|------------------------------|
2|--------------------------------------|------------------3--1--3--1--|
3|-2-----0-----0------------------------|-2-----0-------0--------------|
4|---4-----2-----2--4-----0^4^5-2---0-2-|---4-----2---2----0-----0-----|
5|-----------2--------5-0---------0-----|-----------2---------0-----0--|
6|-----0--------------------------------|-----0------------------------|

1|--------------------------------------|-------------------------------
2|--------------------------------------|-------0-------0--3--1--0------
3|-2-----0-----0------------------------|-2-------0---0-------------2---
4|---4-----2-----2--4-----0^4^5-2---0-2-|---4-------2------0-----0--4---
5|-----------2--------5-0---------0-----|---------------------0---------
6|-----0--------------------------------|-----0-------------------------

1|-0--------------|
2|---0------------|
3|-------2--------|
4|-----5---4^5-2--|
5|----------------|
6|----------------|

Снова полночь -
слышу чей-то голос,
Шепчет имя,
манит и зовет меня...



1|-----------------|-----------------|-----------------|------------------|
2|-8---8-7-----7---|-5---5-4-----4---|-1-----1-----1---|------------------|
3|---9-----8-----8-|---5-----5-----5-|---2-----2-----2-|-5-----5----------|
4|-----------9-----|-----------7-----|-----2-----2-----|---5--------------|
5|-----------------|-----------------|-----------------|-----3----3-2-----|
6|-----------------|-----------------|-----------------|--------------3-2-|

И белым
Туманом
Hа стеклах чей-то вздох оставлен,
И гаснет вдруг пламя
Хотя нет ветра.
Вижу тень я -
Кто-то в черном у окна.

  C  B       Em        G
Кто ты? Hаказанье или милость?
  C  B       Em           G
Кто ты? Отрекаться не спеши!
 C B         Em        G
Может, за душой моей явилась?
 C
Только
 Am
нет
   Em
души.

Проклят, брошен
словно камень с неба,
Страшно падать,
только ждать еще страшней!
Все помнить
И жаждать
Любви, но быть распятым ею,
И мчаться
К безумью,
Услышав Голос...

Ровно полночь -
снова тень идет ко мне...


(c) 1999 RU.MUSIC.ARIA 



 






                       


Copyright © Музыкальный Портал на Куличках 1999-2007      music@kulichki.com


    Stolica.ru    
Реклама в Интернет