Stolica.ru Реклама на Куличках     

Аккорды песен:
A B C D E F G H I J K L M N O P Q R S T U V W X Y Z
АБВГДЕЖЗИКЛМНОПРСТУФХЦЧШЩЭЮЯ





Тексты песен :     A B C D E F G H I J K L M N O P Q R S T U V W X Y Z #

ПОЛНЫЙ СПИСОК ПЕСЕН ГРУППЫ




-->




АРИЯ   

         ОТШЕЛЬНИК
     (Дубинин/Пушкина)
     -----------------
tabbed by Vladimir Gelfand ("Little Prince")
  

Tempo: moderate (113 bpm).

Measure: 6/8.

Tuning: Drop-D (low E-string whole tone down)

INTRO:

(0:01 - 0:13)

RIFF 1:

Gtr.1E|-------------------------|-------------------------|-------------------------|-------------------------|
     H|-------------------------|-------------------------|-------------------------|-------------------------|
     G|-----------------echo----|-----echo-------echo-----|------------------echo---|-----echo-------echo-----|
     D|-----0---0---------------|-(0)---------------------|-----0---0---------------|-(0)---------------------|
     A|-----0---0---------------|-(0)---------------------|-----0---0---------------|-(0)---------------------|
     d|-0-----------------------|-------------------------|-0-----------------------|-------------------------|
        .                                                   .
Gtr.1E|-------------------------|-------------------------|-------------------------|--- 7/8 measure -------------|
     H|-------------------------|-------------------------|-------------------------|-----------------------------|
     G|-----------------echo----|----------------echo-----|-------------------------|-----------------------------|
     D|-----0---0---------------|-----0---0---------------|-----0-------0-------0---|-----0-----------power slide-|
     A|-----0---0---------------|-----0---0---------------|-----0-------0-------0---|-----0----------/x---\\------|
     d|-0-----------------------|-0-----------------------|-0-------0-------0-------|-0-------0---0---------------|
        .                         .                         .       .       .         .       .   .
(0:13 - 0:25)

RIFF 2:

Gtr.1E|-------------------------|-------------------------|-------------------------|-------------------------|
     H|-------------------------|-------------------------|-------------------------|-------------------------|
     G|-------------------------|-------------------------|-------------------------|-------------------------|
     D|-----7-------6-----------|-----7-------6-----------|-5---5---5---5-3---3h5---|-2---2---2---2-0---0h2---|
     A|-5-------5-------8---7---|-5-------5-------8---7---|-3---3---3---3-3---3-----|-0---0---0---0-0---0-----|
     d|-------------------------|-------------------------|-------------------------|-------------------------|
      |                         |                         |                         |                         |
Gtr.2E|-------------------------|-------------------------|-------------------------|-------------------------|
     H|-------------------------|-10~~~~~~~~--------------|-8~~~~~~~~---------6h8p6\|-5-----------------------|
     G|-7~~~~~~~~-------9---10--|----------------10---7---|-------------------------|-------------5-----------|
     D|-------------------------|-------------------------|-------------------------|-------------------------|
     A|-------------------------|-------------------------|-------------------------|-------------------------|
     E|-------------------------|-------------------------|-------------------------|-------------------------|
 
Gtr.1E|-------------------------|-------------------------|-------------------------|-------------------------|
     H|-------------------------|-------------------------|-------------------------|-------------------------|
     G|-------------------------|-------------------------|-------------------------|-------------------------|
     D|-----7-------6-----------|-----7-------6-----------|-5-----------------------|-2-----------------------|
     A|-5-------5-------8---7---|-5-------5-------8---7---|-3-----------------------|-0-----------------------|
     d|-------------------------|-------------------------|-------------------------|-------------------------|
      |                         |                         |                         |                         |
Gtr.2E|-------------------------|-------------------------|-------------------------|-------------8~~~~~~-----|
     H|-------------------------|-10~~~~~~~~--------------|-8~~~~~~~~---------6h8p6\|-5-----------------------|
     G|-7~~~~~~~~-------9---10--|----------------10---7---|-------------------------|-------------------------|
     D|-------------------------|-------------------------|-------------------------|-------------------------|
     A|-------------------------|-------------------------|-------------------------|-------------------------|
     E|-------------------------|-------------------------|-------------------------|-------------------------|

(0:26 - 0:38)

RIFF 2':

Gtr.1E|-------------------------|-------------------------|-------------------------|-------------------------|
     H|-------------------------|-------------------------|-------------------------|-------------------------|
     G|-------------------------|-------------------------|-------------------------|-------------------------|
     D|-----7-------6-----------|-----7-------6-----------|-5---5---5---5-3---3h5---|-2---2---2---2-0---0h2---|
     A|-5-------5-------8---7---|-5-------5-------8---7---|-3---3---3---3-3---3-----|-0---0---0---0-0---0-----|
     d|-------------------------|-------------------------|-------------------------|-------------------------|
      |                         |                         |                         |                         |
Gtr.2E|-------------------------|-10~~~~~~~~--------------|-------------------------|-------------------------|
Gtr.3H|-6~~~~~~~~-------8---10--|-10~~~~~~~~-----10---6---|-8~~~~~~~~------10h11p10\|-8-----------------------|
     G|-7~~~~~~~~-------9---10--|----------------10---7---|-7~~~~~~~~------10h12p10\|-9-----------9-----------|
     D|-------------------------|-------------------------|-------------------------|-------------10----------|
     A|-------------------------|-------------------------|-------------------------|-------------------------|
     E|-------------------------|-------------------------|-------------------------|-------------------------|
 
Gtr.1E|-------------------------|-------------------------|-------------------------|-------------------------|
     H|-------------------------|-------------------------|-------------------------|-------------------------|
     G|-------------------------|-------------------------|-------------------------|-------------------------|
     D|-----7-------6-----------|-----7-------6-----------|-5-----------------------|-2-----------------------|
     A|-5-------5-------8---7---|-5-------5-------8---7---|-3-----------------------|-0-----------------------|
     d|-------------------------|-------------------------|-------------------------|-------------------------|
      |                         |                         |                         |                         |
Gtr.2E|-------------------------|-10~~~~~~~~--------------|-------------------------|-------------8~~~~-------|
Gtr.3H|-6~~~~~~~~-------8---10--|-10~~~~~~~~-----10---6---|-8~~~~~~~~------10h11p10\|-8-----------8~~~~-------|
     G|-7~~~~~~~~-------9---10--|----------------10---7---|-7~~~~~~~~------10h12p10\|-9-----------------------|
     D|-------------------------|-------------------------|-------------------------|-------------------------|
     A|-------------------------|-------------------------|-------------------------|-------------------------|
     E|-------------------------|-------------------------|-------------------------|-------------------------|

(0:38 - 1:04)

VERSE 1:

VoiceE|-------------------------------------------------------------------------------------------------------|
     H|-------------------------------------------------------------------------------------------------------|
     G|---7-----------------------5---------------------------------------------------------------------------|
     D|-------------------------------------------5-----3--5--------------------------3-------3---------------|
     A|--------------------------------------------------------5----5-------5----5---------5------------------|
     E| Kto    -    o          vzyal             moy  hrustal'nyy shar,    ne spro - siv  menya?  ------------|
      |                         |                         |                         |                         |
Gtr.1E|-------------------------|-------------------------|-------------------------|-------------------------|
     H|-------------------------|-------------------------|-------------------------|-------------------------|
     G|-----------------R-------|-----------------R-------|-----------------R-------|-------------------------|
     D|-0---------------E-------|-0---------------E-------|-0---------------E-------|-0-----------------------|
     A|-0---------------S-------|-0---------------S-------|-0---------------S-------|-0-----------1---1-------|
     d|---------0---0---T---0---|---------0---0---T---0---|---------0---0---T---0---|---------0-----------0---|
      | >       .   .       .   | >       .   .       .   | >       .   .       .   | >       .   .   .   .   |
Gtr.2E|-------------------------|-------------------------|-------------------------|-------------------------|
     H|-------------------------|-------------------------|-------------------------|-------------------------|
     G|---------7---7---7-------|---------5---5---5-------|---------4---4---4-------|---------3---3---3-------|
     D|-------------------------|-------------------------|-------------------------|-------------------------|
     A|-------------------------|-------------------------|-------------------------|-------------------------|
     E|-------------------------|-------------------------|-------------------------|-------------------------|
 
VoiceE|-------------------------------------------------------------------------------------------------------|
     H|-------------------------------------------------------------------------------------------------------|
     G|---7-----------------------5---------------------------------------------------------------------------|
     D|-------------------------------------------5---3----5--------------------------3-------3---------------|
     A|--------------------------------------------------------5--5---------5----5------5---------------------|
     E| Kto    -    o           mne              ya - du   podmeshal      sre - di   bela  dnya?   -----------|
      |                         |                         |                         |                         |
Gtr.1E|-------------------------|-------------------------|-------------------------|-------------------------|
     H|-------------------------|-------------------------|-------------------------|-------------------------|
     G|-----------------R-------|-----------------R-------|-----------------R-------|-------------------------|
     D|-0---------------E-------|-0---------------E-------|-0---------------E-------|-0---------- power slide-|
     A|-0---------------S-------|-0---------------S-------|-0---------------S-------|-0-----------x-\\\-------|
     d|---------0---0---T---0---|---------0---0---T---0---|---------0---0---T---0---|---------0---------------|
      | >       .   .       .   | >       .   .       .   | >       .   .       .   | >       .               |
Gtr.2E|-------------------------|-------------------------|-------------------------|-------------------------|
     H|-------------------------|-------------------------|-------------------------|-------------------------|
     G|---------7---7---7-------|---------5---5---5-------|---------4---4---4-------|---------3---3---3-------|
     D|-------------------------|-------------------------|-------------------------|-------------------------|
     A|-------------------------|-------------------------|-------------------------|-------------------------|
     E|-------------------------|-------------------------|-------------------------|-------------------------|
 
VoiceE|-------------------------------------------------------------------------------------------------------|
     H|-------------------------------------------------------------------------------------------------------|
     G|-------------------------------------------------------------------------------------------------------|
     D|------------2-----2---3----5------5----3-------2-------------------------------------------------------|
     A|-----------------------------------------------------5-------------------------------------------------|
     E|--------  Stoy, gde  o - cher - chen  me   -  lom  krug.        ---------------------------------------|
      |                         |                         |                         |                         |
Gtr.1E|-------------------------|-------------------------|-------------------------|-------------------------|
     H|-------------------------|-------------------------|-------------------------|-------------------------|
     G|-------------------------|-------------------------|-------------------------|-------------------------|
     D|-5-----------------------|-(5)---------------------|-------------7-----------|-------------7-6---------|
     A|-3-----------------------|-(3)---------------------|-------------5-----------|-------------5-4---------|
     d|-------------------------|-------------------------|-0---0---0---------------|-0---0---0-----------0---|
        >                                                   .   .   .   >             .   .   .   > >     .
 
VoiceE|-------------------------------------------------------------------------------------------------------|
     H|-------------------------------------------------------------------------------------------------------|
     G|-------------------------------------------------------------------------------------------------------|
     D|------------2-----2---3----5------5---------3--5-----6------------------------5------------------------|
     A|-------------------------------------------------------------------------------------------------------|
     E|--------   Kak  mne pri - ya  -  ten      tvoy is - puuuuuuuuuuuuuuuuuu   -   uuuuuuug.    ------------|
      |                         |                         |                         |                         |
Gtr.1E|-------------------------|-------------------------|-------------------------|-------------------------|
     H|-------------------------|-------------------------|-------------------------|-------------------------|
     G|-------------------------|-------------------------|-------------------------|-------------------------|
     D|-5-----------------------|-(5)---------------------|-7-----------------------|-5-----------------------|
     A|-3-----------------------|-(3)---------------------|-5-----------------------|-3-----------------------|
     d|-------------------------|-------------------------|-------------------------|-------------------------|

(1:04 - 1:29) VERSE 2

(1:29 - 1:54)

CHORUS:

VoiceE|-------------------------------------------------------------------------------------------------------|
     H|-------------------------------------------------------------------------------------------------------|
     G|-------------------------------------------------------------------------------------------------------|
     D|------7------6-----------------7-------6---------------------------------------------------------------|
     A|--5------5-----------8-----5-------5-----------8-----7--7----7---7-------------------------------------|
     E| Da, ya  otshel'  - nik,  mag  i  volsheb  -  nik, tyazhek  moy put'.  --------------------------------|
      |                         |                         |                         |                         |
Gtr.1E|-------------------------|-------------------------|-------------------------|-------------------------|
     H|-------------------------|-------------------------|-------------------------|-------------------------|
     G|-------------------------|-------------------------|-------------------------|-------------------------|
     D|-----7-------6~~~~~------|-----7-------6~~~~~------|-5---5---5---5-3---3h5---|-2---2---2---2-0---0h2---|
     A|-5-------5-----------8---|-5-------5-----------8---|-3---3---3---3-3---3-----|-0---0---0---0-0---0-----|
     d|-------------------------|-------------------------|-------------------------|-------------------------|
 
VoiceE|-------------------------------------------------------------------------------------------------------|
     H|-------------------------------------------------------------------------------------------------------|
     G|-------------------------------------------------------------------------------------------------------|
     D|-----7-------6-----------------7-------6-------------5-----------3-------------2-----------------------|
     A|--5------5-----------8-----5--------5----------8-------------------------------------------3-----------|
     E| drevni - e tay  -  ny   vseh mi - rozda   -  niy  mne          pod           si     -    lu.       ---|
      |                         |                         |                         |                         |
Gtr.1E|-------------------------|-------------------------|-------------------------|-------------------------|
     H|-------------------------|-------------------------|-------------------------|-------------------------|
     G|-------------------------|-------------------------|-------------------------|-------------------------|
     D|-----7-------6~~~~~------|-----7-------6~~~~~------|-5-----------------------|-2-----------------------|
     A|-5-------5-----------8---|-5-------5-----------8---|-3-----------------------|-0-----------------------|
     d|-------------------------|-------------------------|-------------------------|-------------------------|
 
VoiceE|-------------------------------------------------------------------------------------------------------|
     H|-------------------------------------------------------------------------------------------------------|
     G|-------------------------------------------------------------------------------------------------------|
     D|-----7-------6------------------7------6---------------------------------------------------------------|
     A|--5-----5------------8-----5-------5-----------8-----7---7---7---7-------------------------------------|
     E| Ya zakli - na   -  yu     i  prevrascha   -  yu  v zo -lo -to rtut'.  --------------------------------|
      |                         |                         |                         |                         |
Gtr.1E|-------------------------|-------------------------|-------------------------|-------------------------|
     H|-------------------------|-------------------------|-------------------------|-------------------------|
     G|-------------------------|-------------------------|-------------------------|-------------------------|
     D|-----7-------6~~~~~------|-----7-------6~~~~~------|-5---5---5---5-3---3h5---|-2---2---2---2-0---0h2---|
     A|-5-------5-----------8---|-5-------5-----------8---|-3---3---3---3-3---3-----|-0---0---0---0-0---0-----|
     d|-------------------------|-------------------------|-------------------------|-------------------------|
 
VoiceE|-------------------------------------------------------------------------------------------------------|
     H|-------------------------------------------------------------------------------------------------------|
     G|-------------------------------------------------------------------------------------------------------|
     D|-----7-------6-----------------7--------6------------5-----------3-------------2-----------------------|
     A|--5-----5------------8-----5-----5-------------8-------------------------------------------3-----------|
     E| stanu to - bo   -  yu,   ty stanesh' mno  -  yu,   ver    -    nym           sy     -    nom       ---|
      |                         |                         |                         |                         |
Gtr.1E|-------------------------|-------------------------|-------------------------|-------------------------|
     H|-------------------------|-------------------------|-------------------------|-------------------------|
     G|-------------------------|-------------------------|-------------------------|-------------------------|
     D|-----7-------6~~~~~------|-----7-------6~~~~~------|-5-----------------------|-2-----------------------|
     A|-5-------5-----------8---|-5-------5-----------8---|-3-----------------------|-0-----------------------|
     d|-------------------------|-------------------------|-------------------------|-------------------------|

(1:55 - 2:07)

RIFF 3:

VoiceE|-------------------------------------------------------------------------------------------------------|
     H|-------------------------------------------------------------------------------------------------------|
     G|-------------------------------------------------------------------------------------------------------|
     D|-------------------------------------------------------------------------------------------------------|
     A|---5---------------------------------------------------------------------------------------------------|
     E| zlaaaaaaaaaaaaaaaaaaaaa...........                   -------------------------------------------------|
      |                         |                         |                         |                         |
Gtr.1E|-------------------------|-------------------------|-------------------------|-------------------------|
     H|-------------------------|-------------------------|-------------------------|-------------------------|
     G|-------------------------|-------------------------|-------------------------|-------------------------|
     D|-----7-----------6-------|-----5-----------5-------|-----7-----------6-------|-----5-----------5-------|
     A|-5-------8---5-------8---|-5-------8---5-------8---|-5-------8---5-------8---|-5-------8---5-------8---|
     d|-.-------.---.-------.---|-.-------.---.-------.---|-.-------.---.-------.---|-.-------.---.-------.---|
 
Gtr.1E|-------------------------|-------------------------|-------------------------|-------------------------|
     H|-------------------------|-------------------------|-------------------------|-------------------------|
     G|-------------------------|-------------------------|-------------------------|-------------------------|
     D|-----7-----------6-------|-----5-----------5-------|-----7-----------6-------|-----5-------5-----------|
     A|-5-------8---5-------8---|-5-------8---5-------8---|-5-------8---5-------8---|-5-------8---------------|
     d|-.-------.---.-------.---|-.-------.---.-------.---|-.-------.---.-------.---|-.-------.---------------|

(2:08 - 2:33) VERSE 3

(2:33 - 3:11) CHORUS + RIFF 3


(3:11 - 3:37)

INTERLUDE:

VoiceE|---------------------------------------------------------------------------------|
     H|---------------------------------------------------------------------------------|
     G|---------------------------------------------------------------------------------|
     D|-----7--7------7------8----7----------7---7----5-------5-7----5--------------3---|
     A|---------------------------------------------------------------------------------|
     E| V hrustal' - nom   sha - re         ty  vi - dish'    etot  mir.           Po-  |
      |                                                                                 |
Gtr. E|--5-----------------|-(5)---------------|-3-----------------|-(3)----------------|
     H|--6-----------------|-(6)---------------|-4-----------------|-(4)----------------|
     G|--5-----------------|-(5)---------------|-3-----------------|-(3)----------------|
     D|--------------------|-------------------|-------------------|--------------------|
     A|--------------------|-------------------|-------------------|--------------------|
     E|-- F ---------------|-------------------|- D# --------------|--------------------|
 
VoiceE|---------------------------------------------------------------------------------|
     H|---------------------------------------------------------------------------------|
     G|---------------------------------------------------------------------------------|
     D|--3----3------3----3--5-3---------------3-2----2----2------3---5-----------------|
     A|---------------------------------------------------------------------------------|
     E| ro - ki  v nyom   igrayut             nele - py - mi    lyud'mi.    ------------|
      |                                                                                 |
Gtr. E|--------------------|-------------------|-------------------|--------------------|
     H|--6-----------------|-(6)---------------|-5-----------------|-(5)----------------|
     G|--7-----------------|-(7)---------------|-5-----------------|-(5)----------------|
     D|--7-----------------|-(7)---------------|-5-----------------|-(5)----------------|
     A|--------------------|-------------------|-------------------|--------------------|
     E|-- Dm --------------|-------------------|- C ---------------|--------------------|
 
VoiceE|---------------------------------------------------------------------------------|
     H|---------------------------------------------------------------------------------|
     G|---------------------------------------------------------------------------------|
     D|-----6--6------6------8----6----------6---6----5-------5--6--5----------------5--|
     A|---------------------------------------------------------------------------------|
     E| V hrustal' - nom   sha - re         ty  vi - dish'    i sebya,              to  |
      |                                                                                 |
Gtr. E|--4-----------------|-(4)---------------|-3-----------------|-(3)----------------|
     H|--6-----------------|-(6)---------------|-4-----------------|-(4)----------------|
     G|--5-----------------|-(5)---------------|-3-----------------|-(3)----------------|
     D|--------------------|-------------------|-------------------|--------------------|
     A|--------------------|-------------------|-------------------|--------------------|
     E|-- Fm --------------|-------------------|- D# --------------|--------------------|
 
VoiceE|---------------------------------------------------------------------------------|
     H|---------------------------------------------------------------------------------|
     G|---------------------------------------------------------------------------------|
     D|--3----3----3-----3---5----3----------3---2-----2---2------3--5---------7--------|
     A|---------------------------------------------------------------------------------|
     E| de - mon  ty,   to  an - gel,        i  me - chetsya     dusha       tvo   -   -|
      |                                                                                 |
Gtr. E|--------------------|-------------------|-------------------|--------------------|
     H|--6-----------------|-(6)---------------|-5-----------------|-(5)----------------|
     G|--6-----------------|-(6)---------------|-5-----------------|-(5)----------------|
     D|--6-----------------|-(6)---------------|-5-----------------|-(5)----------------|
     A|--------------------|-------------------|-------------------|--------------------|
     E|-- C# --------------|-------------------|- C ---------------|--------------------|

(3:37 - 4:02)

SOLO: (Gtr.2 w/wah pedal)

      - ya...........
Gtr.1E|--------------------------------------|-------------------------------------|
     H|--------------------------------------|-------------------------------------|
     G|--------------------------------------|-------------------------------------|
     D|--7-----------------------7-----------|-7-----------------------7-----------|
     A|--5-----------------------5-----------|-5-----------------------5-----------|
     d|--------0-----0-----0-----------0-----|-------0-----0-----0-----------0-----|
      |                                      |                                     |
Gtr.2E|--5~~~~~~~~~~~~~~~~~~-----------------|--------------5-----3h5p3------------|
     H|--------------------------------------|-\3-----6---------------------6------|
     G|--------------------------------------|-------------------------------------|
     D|--------------------------------------|-------------------------------------|
     A|--------------------------------------|-------------------------------------|
     E|--------------------------------------|-------------------------------------|
 
Gtr.1E|--------------------------------------|-------------------------------------|
     H|--------------------------------------|-------------------------------------|
     G|--------------------------------------|-------------------------------------|
     D|--5-----------------------5-----------|-5-----------------------5-----------|
     A|--3-----------------------3-----------|-3-----------------------3-----------|
     d|--------0-----0-----0-----------0-----|-------0-----0-----0-----------0-----|
      |                                      |                                     |
Gtr.2E|-------3p0h3p0h3p0h3p0h3p0h3p0h3p0h3p0h3p0h3p0h3p0h3p0h3p0------------------|
     H|--5-----------------------------------|-------------------------3-----5-----|
     G|--------------------------------------|-------------------------3-----5-----|
     D|--------------------------------------|-------------------------------------|
     A|--------------------------------------|-------------------------------------|
     E|--------------------------------------|-------------------------------------|
 
Gtr.1E|--------------------------------------|-------------------------------------|
     H|--------------------------------------|-------------------------------------|
     G|--------------------------------------|-------------------------------------|
     D|--3-----------------------3-----------|-5-----------------------5-----------|
     A|--1-----------------------1-----------|-3-----------------------3-----------|
     d|--------0-----0-----0-----------0-----|-------0-----0-----0-----------0-----|
      |                                      |                                     |
Gtr.2E|--------------------------------------|-------------------------------------|
     H|--5-bend6~~~~~~~~~~-------3-----5-----|-5-bend6~~~~~~~~~~-------------------|
     G|--5-bend7~~~~~~~~~~-------3-----5-----|-5-bend7~~~~~~~~~~-------7-----5-----|
     D|--------------------------------------|-------------------------------------|
     A|--------------------------------------|-------------------------------------|
     E|--------------------------------------|-------------------------------------|
 
Gtr.1E|--------------------------------------|-------------------------------------|
     H|--------------------------------------|-------------------------------------|
     G|--------------------------------------|-------------------------------------|
     D|--------------5-----7-----5-----------|-7-----5-----------7-----------------|
     A|--5-----8-----------------------8-----|-------------8-----------8-----------|
     d|--------------------------------------|-------------------------------------|
      |                                      |                                     |
Gtr.2E|--------------------------------------|-------------------------------------|
     H|--------------------6p5---------------|-------6p5---------------------------|
     G|--7-----------7---------7p5-----------|-5---------7p5-----------------------|
     D|----------------------------7p5-7p5---|---7p5----------7bend8---------------|
     A|------------------------------------7-|-------------------------8-----------|
     E|--------------------------------------|-------------------------------------|
 
Gtr.1E|--------------------------------------|-------------------------------------|
     H|--------------------------------------|-------------------------------------|
     G|--------------------------------------|-------------------------------------|
     D|--7-----------------------7-----------|-7-----------------------7-----------|
     A|--5-----------------------5-----------|-5-----------------------5-----------|
     d|--------0-----0-----0-----------0-----|-------0-----0-----0-----------0-----|
      |                                      |                                     |
Gtr.2E|----------------5h6p5-----------------|-------------------------5-----3-----|
     H|----------5h6h8-------8p6p5--------5--|-6-----------------6-----------------|
     G|--------7-------------------7---7-----|-------7-----------------------------|
     D|------7-----------------------7-------|---7-----7---5-7-----7---------------|
     A|--------------------------------------|-------------------------------------|
     E|--------------------------------------|-------------------------------------|
 
Gtr.1E|--------------------------------------|-------------------------------------|
     H|--------------------------------------|-------------------------------------|
     G|--------------------------------------|-------------------------------------|
     D|--5-----------------------5-----------|-5-----------------------5-----------|
     A|--3-----------------------3-----------|-3-----------------------3-----------|
     d|--------0-----0-----0-----------0-----|-------0-----0-----0-----------0-----|
      |                                      |                                     |
Gtr.2E|--0h3p0h3p0h3p0h3p0-------------------|-------------------------------------|
     H|----------------------0h3p0h3p0h3p0h3-|-------------------------------------|
     G|--------------------------------------|-0h2p0h2p0h2p0h2---------------------|
     D|--------------------------------------|-------------------0h2p0h2p0h2p0h2---|
     A|--------------------------------------|-------------------------------------|
     E|--------------------------------------|-------------------------------------|
 
Gtr.1E|--------------------------------------|-------------------------------------|
     H|--------------------------------------|-------------------------------------|
     G|--------------------------------------|-------------------------------------|
     D|--3-----------------------3-----------|-5-----------------------5-----------|
     A|--1-----------------------1-----------|-3-----------------------3-----------|
     d|--------0-----0-----0-----------0-----|-------0-----0-----0-----------0-----|
      |                                      |                                     |
Gtr.2E|--------------------------------------|-------------------------------------|
     H|--------------------------------------|-------------------6-----------------|
     G|--------------------------------------|-------5-----5h7p5-------7~~~~~~~~~--|
     D|--3---2h3p2---------5-----5----/7-----|-5-----------------------------------|
     A|--------------5-----------------------|-------------------------------------|
     E|--------------------------------------|-------------------------------------|
 
Gtr.1E|--------------------------------------|-------------------------------------|
     H|--------------------------------------|-------------------------------------|
     G|--------------------------------------|-------------------------------------|
     D|--------------5-----7-----5-----------|-7-----5-----------7-----------------|
     A|--5-----8-----------------------8-----|-------------8-----------8-----------|
     d|--------------------------------------|-------------------------------------|
      |                                      |                                     |
Gtr.2E|--------------------------------------|-------------------10----------------|
     H|--------------------10---8h10p8-------|-10---8h10p8-----------10\\-sl down--|
     G|--------7-----10----------------10----|-------------10----------------------|
     D|--------------------------------------|-------------------------------------|
     A|--------------------------------------|-------------------------------------|
     E|--------------------------------------|-------------------------------------|
(4:02 - 4:15)
VERSE 4:
                    O, ty  pos - ta   -  vil krov  -  yu  krest.
Gtr.1E|-------------------------|-------------------------|-------------------------|-------------------------|
     H|-------------------------|-------------------------|-------------------------|-------------------------|
     G|-------------------------|-------------------------|-------------------------|-------------------------|
     D|-5-----------------------|-(5)---------------------|-------------7-----------|-------------7-6---------|
     A|-3-----------------------|-(3)---------------------|-------------5-----------|-------------5-4---------|
     d|-------------------------|-------------------------|-0---0---0---------------|-0---0---0-----------0---|
      | >                       |                         | .   .   .   >           | .   .   .   > >     .   |
Gtr.2E|-------------------------|-------------------------|-------------------------|-------------------------|
     H|-------------------------|-------------------------|-------------------------|-------------10 (?)------|
     G|-------------------------|-------------------------|-7-----------9-----------|-10----------------------|
     D|-------------------------|-------------------------|-------------------------|-------------------------|
     A|-------------------------|-------------------------|-------------------------|-------------------------|
     E|-------------------------|-------------------------|-------------------------|-------------------------|
 
                   Do  skoroy vstre - chi         na  kostreeeeeeeeeeeeeeeee    -    eeeeeee!    
Gtr.1E|-------------------------|-------------------------|-------------------------|-------------------------|
     H|-------------------------|-------------------------|-------------------------|-------------------------|
     G|-------------------------|-------------------------|-------------------------|-------------------------|
     D|-5-----------------------|-(5)---------------------|-7-----------------------|-5-----------------------|
     A|-3-----------------------|-(3)---------------------|-5-----------------------|-3-----------------------|
     d|-------------------------|-------------------------|-------------------------|-------------------------|

(4:15 - 4:40) CHORUS,

(4:40 - 5:06) CHORUS, along with Gtr.2 from Riff 2.

(5:06 - 5:18) RIFF 3

(5:19 - 5:34) RIFF 1.





         ОТШЕЛЬНИК
     (Дубинин/Пушкина)
   (c) 1999 RU.MUSIC.ARIA

intro solo:

|---------------|------0----1----|--5------------|
|--3------------|----------------|---------------|
|---------------|----------------|---------------|
|---------------|----------------|---------------|
|---------------|----------------|---------------|
|---------------|----------------|---------------|

----------------|---------------|-------1-3--1----|--0------------|
------6---------|--8------------|-----------------|---------------|
-----------7----|---------------|-----------------|---------------|
----------------|---------------|-----------------|---------------|
----------------|---------------|-----------------|---------------|
----------------|---------------|-----------------|---------------|

---------------|---------------|------0----1----|--5------------|
--1------------|--3------------|----------------|---------------|
---------------|---------------|----------------|---------------|
---------------|---------------|----------------|---------------|
---------------|---------------|----------------|---------------|
---------------|---------------|----------------|---------------|

----------------|---------------|---------3-------|--0------------|
------6---------|--8------------|------6-----6----|---------------|
-----------7----|---------------|-----------------|---------------|
----------------|---------------|-----------------|---------------|
----------------|---------------|-----------------|---------------|
----------------|---------------|-----------------|---------------|

--8------------|---------------|------0----5----|--10------------|
---------------|--6------------|------8----6----|--10------------|
---------------|--7------------|----------------|----------------|
---------------|---------------|----------------|----------------|
---------------|---------------|----------------|----------------|
---------------|---------------|----------------|----------------|

------------------|--8------------|-------6-8--6----|--5------------|
------10----------|--8------------|-------6-8--6----|--5------------|
------10----10----|---------------|-----------------|---------------|
------------12----|---------------|-----------------|---------------|
------------------|---------------|-----------------|---------------|
------------------|---------------|-----------------|---------------|

---------------|---------------|------0----5----|--10------------|
--5------------|--6------------|------8----6----|--10------------|
--5------------|--7------------|----------------|----------------|
---------------|---------------|----------------|----------------|
---------------|---------------|----------------|----------------|
---------------|---------------|----------------|----------------|

------------------|--8------------|------6--8--6----|--5------------|
------10----------|--8------------|------6--8--6----|--5------------|
------10----10----|---------------|-----------------|---------------|
------------12----|---------------|-----------------|---------------|
------------------|---------------|-----------------|---------------|
------------------|---------------|-----------------|---------------|

--12------------|--13------------|
--13------------|--15------------|
----------------|----------------|
----------------|----------------|
----------------|----------------|
----------------|----------------|


Em   D/E         C#m/E
Kто взял мой хрустaльный шaр
       C/E
Hе спросив меня?
Em  D/E     C#m/E
Kто мне яду подмешaл
      C/E
Среди белa дня?
D          D/F#         Em      Eb
Стой, где очерчен мелом круг, -
D          D/F#         C7  B7
Kaк мне приятен твой испуг!


Ты знaл, что войти в мой дом -
Знaчит умереть!
Ты знaл, но игрaл с огнем
И попaлся в сеть!
Hо я не врaг твой - я твой друг.
Стой, где очерчен мелом круг!

Припев:
   Em      Edim     Em       Edim
   Дa, я отшельник, мaг и волшебник,
   D               B7
   Тяжек мой путь.
   Em      Edim  Em       Edim
   Древние тaйны всех мироздaний
   C6  C   D
   Мне под силу.
   Em     Edim Em     Edim  D            B7
   Я зaклинaю и преврaщaю в золото ртуть,
   Em      Edim Em         Edim
   Стaну тобою, ты стaнешь мною,
   C6  C  D      Em  Edim  Em11  Em Edim  Em11
   Верным сыном злa.


Ты жив, но для всех исчез
В черных облaкaх,
Вот здесь стaвят кровью крест -
Подпись нa векa.
Я нaучу тебя летaть,
В зеркaле мирa исчезaть.

Припев.

G
В хрустaльном шaре
    F
Ты видишь этот мир,
  Em
Пороки в нем игрaют
  D
Hелепыми людьми,
Gm
В хрустaльном шaре
    F
Ты видишь и себя -
   Eb
То демон ты, то aнгел,
  D              Em
И мечется душa твоя.


О, ты постaвил кровью крест,
До скорой встречи нa костре.

Припев.

 






                       


Copyright © Музыкальный Портал на Куличках 1999-2007      music@kulichki.com


    Stolica.ru    
Реклама в Интернет