Stolica.ru Реклама на Куличках     

Аккорды песен:
A B C D E F G H I J K L M N O P Q R S T U V W X Y Z
АБВГДЕЖЗИКЛМНОПРСТУФХЦЧШЩЭЮЯ





Тексты песен :     A B C D E F G H I J K L M N O P Q R S T U V W X Y Z #

ПОЛНЫЙ СПИСОК ПЕСЕН ГРУППЫ




-->




АРИЯ   

Дух войны
---------
tabbed by Vladimir Gelfand ("Little Prince")

Tempo: moderately fast (140 bpm)

INTRO:

(0:01 - 0:28)

RIFF 1:
Gtr.1E|-------------------------|
     H|-------------------------|
     G|-------------------------|
     D|-------------5-----7-----|
     A|-------------3-----5-----|
     E|-------------------------|
 
Gtr.1E|-------------------------|-------------------------|-------------------------|-------------------------|
     H|-------------------------|-------------------------|-------------------------|-------------------------|
     G|-------------------------|-------------------------|-R-----------------------|----------------------5--|
     D|-9-----------------------|(9)----------------------|-E-----------------------|----------------------5--|
     A|-7-----------------------|(7)----------------------|-S-----------------------|-2-----------------------|
     E|-------------------------|-------------------------|-T-----------------------|-2-----------------------|
      |                         |                         |                         |                         |
Gtr.2E|-------------------------|-------------------------|-------------------------|-------------------------|
     H|----10b12r10----8--------|-------------------------|----10b12r10----8--------|-------------------------|
     G|-------------------9~~~~~|(9)~~~~~~~~~~------------|-------------------9~~~~~|(9)~~~~~~~~~~~--------5--|
     D|-------------------------|-------------------------|-------------------------|-------------------------|
     A|-------------------------|-------------------------|-------------------------|-------------------------|
     E|-------------------------|-------------------------|-------------------------|-------------------------|
 
Gtr.1E|-------------------------|-------------------------|-------------------------|-------------------------|
     H|-------------------------|-------------------------|-------------------------|-------------------------|
     G|(5)----------------------|-------------------------|-------------------------|-------------------------|
     D|(5)-------------------5--|(5)----------------------|-------------------------|-------------5-----7-----|
     A|----------------------5--|(5)-------------------5--|(5)----------------------|-------------3-----5-----|
     E|-------------------------|----------------------5--|(5)----------------------|-------------------------|
      |                         |                         |                         |                         |
Gtr.2E|-------------------------|-------------------------|-------------------------|-------------------------|
     H|-------------------------|-------------------------|-------------------------|-------------------------|
     G|(5)-5--5--5--5--4--------|-------------------------|------------<7>----------|(<7>)--------------------|
     D|-------------------7--5--|(5)-5--5--5--5--4--------|----------- Harm. -------|-------------------------|
     A|-------------------------|-------------------7--5--|(5)----------------------|-------------------------|
     E|-------------------------|-------------------------|-------------------------|-------------------------|
 
Gtr.1E|-------------------------|-------------------------|-------------------------|-------------------------|
     H|-------------------------|-------------------------|-------------------------|-------------------------|
     G|-------------------------|-------------------------|-R-----------------------|----------------------5--|
     D|-9-----------------------|(9)----------------------|-E-----------------------|----------------------5--|
     A|-7-----------------------|(7)----------------------|-S-----------------------|-2-----------------------|
     E|-------------------------|-------------------------|-T-----------------------|-2-----------------------|
      |                         |                         |                         |                         |
Gtr.2E|-------------------------|-------------------------|-------------------------|-------------------------|
     H|----10b12r10----8--------|-------------------------|----10b12r10----8--------|-------------------------|
     G|-------------------9~~~~~|(9)~~~~~~~~~~------------|-------------------9~~~~~|(9)~~~~~~~~~~~--------5--|
     D|-------------------------|-------------------------|-------------------------|-------------------------|
     A|-------------------------|-------------------------|-------------------------|-------------------------|
     E|-------------------------|-------------------------|-------------------------|-------------------------|
 
Gtr.1E|-------------------------|-------------------------|-------------------------|-------------------------|
     H|-------------------------|-------------------------|-------------------------|-------------------------|
     G|(5)----------------------|-------------------------|-------------------------|-------------------------|
     D|(5)-------------------5--|(5)----------------------|-------------------------|-------------------------|
     A|----------------------5--|(5)-------------------5--|(5)----------------------|-(5)---------------------|
     E|-------------------------|----------------------5--|(5)----------------------|-(5)---------------------|
      |                         |                         |                         |                         |
Gtr.2E|-------------------------|-------------------------|-------------------------|-------------------------|
     H|-------------------------|-------------------------|-------------------------|-------------------------|
     G|(5)-5--5--5--5--4--------|-------------------------|-------------------------|-------------------------|
     D|-------------------7--5--|(5)-5--5--5--5--4--------|-------------------------|-------------------------|
     A|-------------------------|-------------------7--5--|(5)----------------------|-(5)---------------------|
     E|-------------------------|-------------------------|-------------------------|-------------------------|

Tempo: faster (160 bpm)

(0:28 - 0:40)

RIFF 2:

Gtr.1E|-------7p5h7p5-------7p5h7p5-|-------7p5h7p5-------------|-------7p5h7p5-------7p5h7p5-|-------7p5h7p5-------------|
Gtr.2H|-------------------------|-------------------------|-------------------------|-------------------------|
     G|-------7p5h7p5-------7p5h7p5-|-------7p5h7p5-------------|-------7p5h7p5-------7p5h7p5-|-------7p5h7p5-------------|
     D|-------------------------|----------------0--5--7--|-4--0--------------------|----------------0--5--7--|
     A|-------------------------|-------------------------|-------------------------|-------------------------|
     E|-------------------------|-------------------------|-------------------------|-------------------------|
      |                         |                         |                         |                         |
Bass G|-------------------------|-------------------------|-------------------------|-------------------------|
     D|-------------------------|-------------------------|-------------------------|-------------------------|
     A|-7-----7-----7-----7-----|-7-----7-----7-----7-----|-3-----3-----3-----3-----|-3-----3-----3-----3-----|
     E|-------------------------|-------------------------|-------------------------|-------------------------|
 
Gtr.1E|-------7p5h7p5-------7p5h7p5-|-------7p5h7p5-------------|-------7p5h7p5-------7p5h7p5-|-------7p5h7p5-------------|
Gtr.2H|-------------------------|-------------------------|-------------------------|-------------------------|
     G|-------7p5h7p5-------7p5h7p5-|-------7p5h7p5-------------|-------7p5h7p5-------7p5h7p5-|-------7p5h7p5-------------|
     D|-4--0--------------------|----------------0--5--7--|-4--0--------------------|----------------0--5--7--|
     A|-------------------------|-------------------------|-------------------------|-------------------------|
     E|-------------------------|-------------------------|-------------------------|-------------------------|
      |                         |                         |                         |                         |
Bass G|-------------------------|-------------------------|-------------------------|-------------------------|
     D|-------------------------|-------------------------|-------------------------|-------------------------|
     A|-7-----7-----7-----7-----|-7-----7-----7-----7-----|-3-----3-----3-----3-----|-3-----3-----3-----3-----|
     E|-------------------------|-------------------------|-------------------------|-------------------------|

(0:40 - 1:03)

VERSE 1:

VoiceE|--------------------------------------------------------------------------------------------------------|
     H|--------------------------------------------------------------------------------------------------------|
     G|-------------------------------------------------------------------------------2------------------------|
     D|---2---2---2----------------2-----4-----5-------------2-----2--2--------5------------5----2-------------|
     A|--------------------2-----------------------------------------------------------------------------------|
     E| Vnov' i vnov'     ya      vi - zhu    son:         krov - yu za   -   lit    go  - ri - zont    -------|
      |                          |                         |                         |                         |
Gtr. E|--------------------------|-------------------------|-------------------------|-------------------------|
     H|--------------------------|-------------------------|-------------------------|-------------------------|
     G|--------------------------|-------------------------|-------------------------|-------------------------|
     D|--9--------9--------------|-9--------9--------------|-5--------5--------------|-5--------5--------------|
     A|--7--------7--------------|-7--------7--------------|-3--------3--------------|-3--------3--------------|
     E|-----0--0-----------------|----0--0-----------------|----0--0-----------------|----0--0-----------------|
         >  .  .  >                >  .  .  >                >  .  .  >                >  .  .  >
 
VoiceE|--------------------------------------------------------------------------------------------------------|
     H|--------------------------------------------------------------------------------------------------------|
     G|--------------------------------------------------------------------------------------------------------|
     D|--0----0---0--------5-------4-----2-----0------2------2-------------------------4-----------------------|
     A|--------------------------------------------------------------------------------------------------------|
     E|- i   zemlya      v og  -  ne    na   mno  -  go     miiiiiiiiiiiiiiiii    -    iiiiiiiiiil'.  ---------|
      |                          |                         |                         |                         |
Gtr. E|--------------------------|-------------------------|-------------------------|-------------------------|
     H|--------------------------|-------------------------|-------------------------|-------------------------|
     G|--------------------------|-------------------------|-------------------------|-------------------------|
     D|--7--------7--------------|-7--------7--------------|-5--------5--------------|-7--------7--------------|
     A|--5--------5--------------|-5--------5--------------|-3--------3--------------|-5--------5--------------|
     E|-----0--0-----------------|----0--0-----------------|----0--0-----------------|----0--0-----------------|
         >  .  .  >                >  .  .  >                >  .  .  >                >  .  .  >
 
VoiceE|--------------------------------------------------------------------------------------------------------|
     H|--------------------------------------------------------------------------------------------------------|
     G|-------------------------------------------------------------------------------2------------------------|
     D|---2-----2-2--------------2-------4-----5-------------2----2---2--------5------------5----2-------------|
     A|--------------------2-----------------------------------------------------------------------------------|
     E| Shest' minut      do    cha  -  sa    'iks',        ne - bo sko   -   ro     ruh - net vniz,   --------|
      |                          |                         |                         |                         |
Gtr. E|--------------------------|-------------------------|-------------------------|-------------------------|
     H|--------------------------|-------------------------|-------------------------|-------------------------|
     G|--------------------------|-------------------------|-------------------------|-------------------------|
     D|--9--------9--------------|-9--------9--------------|-5--------5--------------|-5--------5--------------|
     A|--7--------7--------------|-7--------7--------------|-3--------3--------------|-3--------3--------------|
     E|-----0--0-----------------|----0--0-----------------|----0--0-----------------|----0--0-----------------|
         >  .  .  >                >  .  .  >                >  .  .  >                >  .  .  >
 
VoiceE|--------------------------------------------------------------------------------------------------------|
     H|--------------------------------------------------------------------------------------------------------|
     G|--------------------------------------------------------------------------------------------------------|
     D|--0--0-----0--------5-------4-----2-----0-----2-------2------------------------1------------------------|
     A|--------------------------------------------------------------------------------------------------------|
     E| veter   vseh      raz  -  ve  - yet  slov - no      pyyyyyyyyyyyyyyyyyy   -   yyyyyyyyyyl'.   ---------|
      |                          |                         |                         |                         |
Gtr. E|--------------------------|-------------------------|-------------------------|-------------------------|
     H|--------------------------|-------------------------|-------------------------|-------------------------|
     G|--------------------------|-------------------------|-------------------------|-------------------------|
     D|--7--------7--------------|-7--------7--------------|-5--------5--------------|-4--------4--------------|
     A|--5--------5--------------|-5--------5--------------|-3--------3--------------|-2--------2--------------|
     E|-----0--0-----------------|----0--0-----------------|----0--0-----------------|----0--0-----------------|
         >  .  .  >                >  .  .  >                >  .  .  >                >  .  .  >

(1:04 - 1:15)

BRIDGE:

VoiceE|--------------------------------------------------------------------------------------------------------|
     H|--------------------------------------------------------------------------------------------------------|
     G|--------------------------------------------------------------------------------------------------------|
     D|--2---2------2------2-------4-------------------------5--5--------5-------5-----7-----------------------|
     A|--------------------------------------------------------------------------------------------------------|
     E| Vremya      u  -  bi   -  vaaaaaaaat',             vremya       nas  -  tu  - paaaaaaat',   -----------|
      |                          |                         |                         |                         |
Gtr. E|--------------------------|-------------------------|-------------------------|-------------------------|
     H|--------------------------|-------------------------|-------------------------|-------------------------|
     G|--------------4-----------|-2-----------------------|-------------4-----------|-2-----------------------|
     D|--2-----------5-----------|-4-----------4-----------|-2-----------5-----------|-4-----------4-----------|
     A|--2-----------------------|-------------5-----------|-2-----------------------|-------------5-----------|
     E|--0-----------------------|-------------------------|-0-----------------------|-------------------------|
 
VoiceE|--------------------------------------------------------------------------------------------------------|
     H|--------------------------------------------------------------------------------------------------------|
     G|--------------------------------------------------------------------------------------------------------|
     D|--5---5-------5------5------7-----4-----5-----7------9--------------------------------------5-----7-----|
     A|--------------------------------------------------------------------------------------------------------|
     E| vremya      nas -  tu  -  pat'   i    po  - bezh - daaaaaaaaaaaaaaaaaaaaaaaat'!           Duh   voy-   |
      |                          |                         |                         |                         |
Gtr. E|--------------------------|-------------------------|-------------------------|-------------------------|
  +  H|--------------------------|-------------------------|-------------------------|-------------------------|
Bass G|--------------4-----------|-2-----------------------|-------------------------|-------------------------|
     D|--2-----------5-----------|-4-----------4-----------|-4~~~~~~~~~~~~-----------|-------------------------|
     A|--2-----------------------|-------------5-----------|-2~~~~~~~~~~~~-----------|-------------3-----5-----|
     E|--0-----------------------|-------------------------|-------------------------|------------->----->-----|

(1:16 - 1:39)

CHORUS:

       ny                       skalit   -  sya    iz    t'my,                      vhodit   v    na  - shi
Gtr. E|-------------------------|-------------------------|-------------------------|-------------------------|
     H|----10b12r10----8--------|-------------------------|----10b12r10----8--------|-------------------------|
     G|-------------------9~~~~~|(9)~~~~~~~~~~------------|-------------------9~~~~~|(9)~~~~~~~~~~~--------5--|
     D|-------------------------|-------------------------|-------------------------|-------------------------|
     A|-------------------------|-------------------------|-------------------------|-------------------------|
     E|-------------------------|-------------------------|-------------------------|-------------------------|
      |                         |                         |                         |                         |
Bass G|-------------------------|-------------------------|-------------------------|-------------------------|
     D|-------------------------|-------------------------|-------------------------|-------------------------|
     A|-7-----7-----7-----7-----|-7-----7-----7-----7-----|-5-----5-----5-----5-----|-2-----2-----2-----2--3--|
     E|-------------------------|----------------------7--|----------------------5--|-------------------------|
 
       sny - y.    Duh   voy  -  ny,       i my ye - mu vernyyyyy - yyyyyyyyyyyyyyyyyy!          Vot    i
Gtr. E|-------------------------|-------------------------|-------------------------|-------------------------|
     H|-------------------------|-------------------------|-------------------------|-------------------------|
     G|(5)-5--5--5--5--4--------|-------------------------|------------<7>----------|(<7>)--------------------|
     D|-------------------7--5--|(5)-5--5--5--5--4--------|----------- Harm. -------|-------------------------|
     A|-------------------------|-------------------7--5--|(5)----------------------|-------------------------|
     E|-------------------------|-------------------------|-------------------------|-------------------------|
      |                         |                         |                         |                         |
Bass G|----5--5--5--5--4--------|-------------------------|-------------------------|-------------------------|
     D|-------------------7--5--|(5)-5--5--5--5--4--------|-------------------------|-------------------------|
     A|(3)----------------------|-------------------7--5--|(5)----------5-----5-----|-5-----5-----3-----5-----|
     E|-------------------------|-------------------------|-------------------------|------------->----->-----|
 
      vsyo!                      Mir  ob  -  yat    og  -  nem,                      no  ne     stih - net 
Gtr. E|-------------------------|-------------------------|-------------------------|-------------------------|
     H|----10b12r10----8--------|-------------------------|----10b12r10----8--------|-------------------------|
     G|-------------------9~~~~~|(9)~~~~~~~~~~------------|-------------------9~~~~~|(9)~~~~~~~~~~~--------5--|
     D|-------------------------|-------------------------|-------------------------|-------------------------|
     A|-------------------------|-------------------------|-------------------------|-------------------------|
     E|-------------------------|-------------------------|-------------------------|-------------------------|
      |                         |                         |                         |                         |
Bass G|-------------------------|-------------------------|-------------------------|-------------------------|
     D|-------------------------|-------------------------|-------------------------|-------------------------|
     A|-7-----7-----7-----7-----|-7-----7-----7-----7-----|-5-----5-----5-----5-----|-2-----2-----2-----2--3--|
     E|-------------------------|----------------------7--|----------------------5--|-------------------------|
 
       gro - om.   Duh   voy  -  ny    -   on trebuyet eschyoooooooooooooo - oooooooooo!           Es   -
Gtr. E|-------------------------|-------------------------|-------------------------|-------------------------|
     H|-------------------------|-------------------------|-------------------------|-------------------------|
     G|(5)-5--5--5--5--4--------|-------------------------|-------------------------|-------------------------|
     D|-------------------7--5--|(5)-5--5--5--5--4--------|-------------------------|-------------------------|
     A|-------------------------|-------------------7--5--|(5)----------------------|-(5)---------------------|
     E|-------------------------|-------------------------|-------------------------|-------------------------|
      |                         |                         |                         |                         |
Bass G|----5--5--5--5--4--------|-------------------------|-------------------------|-------------------------|
     D|-------------------7--5--|(5)-5--5--5--5--4--------|-------------------------|-------------------------|
     A|(3)----------------------|-------------------7--5--|(5)----------------------|-(5)---------------------|
     E|-------------------------|-------------------------|-------------------------|-------------------------|

(1:40 - 1:51)

RIFF 2:
       chyo  -  o!
Gtr.1E|-------7p5h7p5-------7p5h7p5-|-------7p5h7p5-------------|-------7p5h7p5-------7p5h7p5-|-------7p5h7p5-------------|
Gtr.2H|-------------------------|-------------------------|-------------------------|-------------------------|
     G|-------7p5h7p5-------7p5h7p5-|-------7p5h7p5-------------|-------7p5h7p5-------7p5h7p5-|-------7p5h7p5-------------|
     D|-------------------------|----------------0--5--7--|-4--0--------------------|----------------0--5--7--|
     A|-------------------------|-------------------------|-------------------------|-------------------------|
     E|-------------------------|-------------------------|-------------------------|-------------------------|
      |                         |                         |                         |                         |
Bass G|-------------------------|-------------------------|-------------------------|-------------------------|
     D|-------------------------|-------------------------|-------------------------|-------------------------|
     A|-7-----7-----7-----7-----|-7-----7-----7-----7-----|-3-----3-----3-----3-----|-3-----3-----3-----3-----|
     E|-------------------------|-------------------------|-------------------------|-------------------------|
 
Gtr.1E|-------7p5h7p5-------7p5h7p5-|-------7p5h7p5-------------|-------7p5h7p5-------7p5h7p5-|-------7p5h7p5-------------|
Gtr.2H|-------------------------|-------------------------|-------------------------|-------------------------|
     G|-------7p5h7p5-------7p5h7p5-|-------7p5h7p5-------------|-------7p5h7p5-------7p5h7p5-|-------7p5h7p5-------------|
     D|-4--0--------------------|----------------0--5--7--|-4--0--------------------|----------------0--5--7--|
     A|-------------------------|-------------------------|-------------------------|-------------------------|
     E|-------------------------|-------------------------|-------------------------|-------------------------|
      |                         |                         |                         |                         |
Bass G|-------------------------|-------------------------|-------------------------|-------------------------|
     D|-------------------------|-------------------------|-------------------------|-------------------------|
     A|-7-----7-----7-----7-----|-7-----7-----7-----7-----|-3-----3-----3-----3-----|-3-----3-----3-----3-----|
     E|-------------------------|-------------------------|-------------------------|-------------------------|

(1:52 - 2:15) VERSE 2

(2:16 - 2:27) BRIDGE

(2:28 - 3:03) CHORUS with RIFF 2


(3:03 - 3:15)

RIFF 3 (play 2 times):

Gtr.E||-------------------------|-------------------------|-------------------------|-------------------------||
    H||-------------------------|-------------------------|-------------------------|-------------------------||
    G||-------------------------|------/9-----7-----------|-------------------------|-------------------------||
    D||-9--------9--------9-----|-------------------9-----|-5--------5--------5-----|------/9-----7-----------||
    A||-7--------7--------7-----|-------------------------|-3--------3--------3-----|-------------------9-----||
    E||-------------------------|-------------------------|-------------------------|-------------------------||

(3:15 - 3:27)

RIFF 3' (play 2 times):

Gtr.E||-------------------------|-------------------------|-------------------------|-------------------------||
    H||-------------------------|------/8-----7-----------|-------------------------|-------------------------||
    G||-------------------------|-------------------7-----|-------------------------|------/9-----7-----------||
    D||-9--------9--------9-----|-------------------------|-5--------5--------5-----|-------------------9-----||
    A||-7--------7--------7-----|-------------------------|-3--------3--------3-----|-------------------------||
    E||----0--0-----0--0--------|-------------------------|----0--0-----0--0--------|-------------------------||
        >  .  .  >  .  .  >                                 >  .  .  >  .  .  >

SOLO:

(3:27 - 3:51)

Part A: (Holstinin's lead)

LeadE|-------------------------|-------------------------|-------2-----------------|-------------------------|
    H|----5---5---5---5---5---5-----5---5---5---5---5---5------2---5-4-2-----------|-------------------------|
    G|-4b6-4b6-4b6-4b6-4b6-4b6-|-4b6-4b6-4b6-4b6-4b6-4b6-|-4b6-----------5-4-2-2-2-|-4p2-2-5p2-2-6p2-2-5p2-2-|
    D|-------------------------|-------------------------|-------------------------|-------------------------|
    A|-------------------------|-------------------------|-------------------------|-------------------------|
    E|-------------------------|-------------------------|-------------------------|-------------------------|
     |                         |                         |                         |                         |
BassG|-------------------------|-------------------------|-------------------------|----6--7--9--7--6--------|
    D|-------------------------|-------------7-----------|-7--7--7--7--7--7--7--7--|-7-----------------9--7--|
    A|-9--9--9--9--9--9--9--9--|-9--9--9--9-----9--9--9--|-------------------------|-------------------------|
    E|-------------------------|-------------------------|-------------------------|-------------------------|
 
LeadE|-------------------------|-------------------------|-------------------------|-------------------------|
    H|-------------------------|-----------A.H.----------|-------------------------|-------------------------|
    G|-4b6---4h6p4---------------|-----------<4>b6r4-------|-------------------------|-------------------------|
    D|-----------7-6h7p6p4-----|-4-----6--7--------7--6--|-4-----------4h6p4h6p4h6p|p4-----------------------|
    A|-------------------------|-------------------------|-------------------------|-------------------------|
    E|-------------------------|-------------------------|-------------------------|-------------------------|
     |                         |                         |                         |                         |
BassG|-------------------------|-------------------------|-------------------------|-------------------------|
    D|-------------------------|-------------6-----------|-------------------------|-------------------------|
    A|-7--7--7--7--7--7--7--7--|-7--7--7--7-----7--7--7--|-9--9--9--9--9--9--9--9--|-7--9--------------------|
    E|-------------------------|-------------------------|-------------------------|----------10----9-----9--|
 
LeadE|-----------------------------------------|-9--12p9-12p9-12p9h12p9h12p9h12-----14---|
    H|---------------------10--12p10h12p10h12--|-----------------------------------------|
    G|-9-h11p9h11p9h11-------------------------|-----------------------------------------|
    D|-----------------------------------------|-----------------------------------------|
    A|-----------------------------------------|-----------------------------------------|
    E|-----------------------------------------|-----------------------------------------|
     |                                         |                                         |
BassG|-----------------------------------------|-----------------------------------------|
    D|-----------------------------------------|---------------------7-------------------|
    A|-9----9----9----9----9----9----9----9----|-9----9----9----9---------9----9----9----|
    E|-----------------------------------------|-----------------------------------------|
 
LeadE|-17p16p14-17p16p14-17p16p14-17p16p14-17p16p14-17p16p14-|-17bend19----------------------17---19---|
    H|-----------------------------------------|-----------------------------------------|
    G|-----------------------------------------|-----------------------------------------|
    D|-----------------------------------------|-----------------------------------------|
    A|-----------------------------------------|-----------------------------------------|
    E|-----------------------------------------|-----------------------------------------|
     |                                         |                                         |
BassG|-----------------------------------------|------6----7----9----7----6--------------|
    D|-7----7----7----7----7----7----7----7----|-7-----------------------------9----7----|
    A|-----------------------------------------|-----------------------------------------|
    E|-----------------------------------------|-----------------------------------------|
 
LeadE|-21-------19----17---16------------------|-----------------------------------------|
    H|------------------------------17---------|-----------------------------------------|
    G|------------------------------------16---|-13--------------------------------------|
    D|-----------------------------------------|----------14-----------------------------|
    A|-----------------------------------------|----------------14---11------------------|
    E|-----------------------------------------|-----------------------------------------|
     |                                         |                                         |
BassG|-----------------------------------------|-----------------------------------------|
    D|-----------------------------------------|---------------------6-------------------|
    A|-7----7----7----7----7----7----7----7----|-7----7----7----7---------7----7----7----|
    E|-----------------------------------------|-----------------------------------------|
 
LeadE|-----------------------------------------|-----------------------------------------|
    H|-----------------------------------------|-----------------------------------------|
    G|------------------------------------8----|-(8)-------------------------------------|
    D|---------------------9--------11---------|---------------------9-------------------|
    A|----------------9------------------------|-----------------------------------------|
    E|-7-------/11-----------------------------|-----------------------------------------|
     |                                         |                                         |
BassG|-----------------------------------------|------8----9----11---9----8--------------|
    D|-----------------------------------------|------------------------------11----9----|
    A|-9----9----9----9----9----9----9----9----|-9---------------------------------------|
    E|-----------------------------------------|-----------------------------------------|

(3:51 - 4:15)

Part B of the SOLO: (Terentiev's lead)

(rhythm guitar repeats the verse part)

       E5                E5                              E5                E5
LeadE|-------------------------------------------------|-------------------------------------------------|
    H|-------------------------------------------------|-------------------------------------------------|
    G|------/9----------------------/9-----------------|------/9-----------------------------------------|
    D|-------------8-----7*^---------------8-----7*^---|(7)----------8-----7*^---------------------------|
    A|-------------------------------------------------|-------------------------------10----7-----------|
    E|------------------bend1/4------------------------|-------------------------------------------------|
       C5                C5                              C5                C5
LeadE|-------------------------------------------------|-------------------------------------------------|
    H|-------------------------------------------------|-------------------------------------------------|
    G|------/9----------------------/9-----------------|------------/9-----12~~~~~~~~~~~~~~--------------|
    D|-------------8-----7*^---------------8-----7*^---|(7)----------------------------------------------|
    A|-------------------------------------------------|-------------------------------------------------|
    E|-------------------------------------------------|-------------------------------------------------|
       D5                D5                              D5                D5
LeadE|-------------------------------------------------|-------------12----------T-----------------------|
    H|-------------------------------------------------|-12-------------12h13h15-17p15p13p12-------------|
    G|-------------------------------------12----------|----11h12h14-------------------------12----------|
    D|-------------------------12-------------10h12/14-|-------------------------------------------------|
    A|-----------------------------9h10h12-------------|-------------------------------------------------|
    E|-------------------10h12-------------------------|-------------------------------------------------|
       C5                C5                              D5                D5
LeadE|----------T-----------------------T--------------|----------T--------------------------------------|
    H|----------17p13-p12---------------17p13-p12------|----------17p13-p12------------------------------|
    G|-(12)----------------12--11------------------11--|-9-------------------9---7---9---7---------------|
    D|-------------------------------------------------|-------------------------------------9---7---5---|
    A|-------------------------------------------------|-------------------------------------------------|
    E|-------------------------------------------------|-------------------------------------------------|
       E5                E5                              E5                E5
LeadE|-------------------------------------------------|-------------------------------------------------|
    H|-------------------------------------------------|-------------------------------------------------|
    G|-------------------------------------------------|-----------------------------------------2-------|
    D|-----------------------------4-------------------|-------------------------2-------5---4-------5---|
    A|-7~~~~~~~~~~~~~~~~-------7-------7---5-----------|-------------------------------------------------|
    E|-----------------------------------------7---5---|-3~~~~~~~~~~~~~~---------------------------------|
       C5                C5                              C5                C5
LeadE|-------------------------------------------------|-------------------------------------------------|
    H|---------------------3---5p0-----7p0-----8p0-----|-10----------------8-p7--8~~~~~~~~~~~~~~~--------|
    G|-4---2---5---4---5-------------------------------|-------------------------------------------------|
    D|-------------------------------------------------|-------------------------------------------------|
    A|-------------------------------------------------|-------------------------------------------------|
    E|-------------------------------------------------|-------------------------------------------------|
       D5                D5                              D5                D5
LeadE|-------------------------------------------------|-5-----------------5~~~~~~~~~~~~~~~~~------------|
    H|-/7----------------7~~~~~~~~~~~~~~~~~~~~~--------|-------------------------------------------3-/5--|
    G|-------------------------------------------------|-------------------------------------------------|
    D|-------------------------------------------------|-------------------------------------------------|
    A|-------------------------------------------------|-------------------------------------------------|
    E|-------------------------------------------------|-------------------------------------------------|
       C5                C5                              H5                H5
LeadE|-------------------------------------------------|-------------------------------------------------|------------
    H|-7-----5-/7--8-----7-/8--10----8-/10-12----10/12-|-13----12/13-15----15~~~~~~~~~~~~~~~~~~~---------|-15b17 -->
    G|-------------------------------------------------|-------------------------------------------------|--- to -----
    D|-------------------------------------------------|-------------------------------------------------|--BRIDGE----
    A|-------------------------------------------------|-------------------------------------------------|------------
    E|-------------------------------------------------|-------------------------------------------------|------------

(4:15 - 4:27) BRIDGE

(4:27 - 4:53) CHORUS without RIFF 2.


ДУХ ВОЙHЫ
(Дубинин/Пушкина)

(c) 1999 RU.MUSIC.ARIA

E------------7--5--3h0--|--7--5--3h0-----------|--------------------|
H-----------------------|----------------------|--------------------|
G--5--7--9--------------|----------------------|--5---5-5-5-5-5-----|
D--5--7--9--------------|----------------------|--5---5-5-5-5-5-----|
A--3--5--7--------------|----------------------|--3---3-3-3-3-3-0---|
E-----------------------|----------------------|--------------------|

E-----------------------|--5~~~----------------|
H-----------------------|----------------------|
G--------------------7--|----------------------|
D--5---5-5-5-5-5-----7--|----------------------|
A--5---5-5-5-5-5-----5--|----------------------|
E--3---3-3-3-3-3-0------|----------------------|


 Em
Вновь и вновь я вижу сон:
 C
Кровью залит горизонт,
D                        C  D
И земля в огне на много миль.
 Em
Шесть минут до часа "X",
C
Hебо скоро рухнет вниз,
D                          C  B
Ветер всех развеет словно пыль.

Припев:
   C        D
   Время убивать,
   C/E         D/F#
   Время наступать,
   C           D           B7
   Время наступать и побеждать!


   C   D  Em
   Дух войны
                 D
   Cкалится из тьмы.
   B             C
   Входит в наши сны
          G
   Дух войны -
               D
   И мы ему верны.


   C   D Em
   Вот и все.
               D
   Мир объят огнем,
   B             C
   Hо не стихнет гром.
          G
   Дух войны -
              D
   Он требует еще...
    C
   Еще!



Разpушенье - это стpасть.
Все pавно какая власть.
Власть пила всегда чужую кpовь.
И когда наступит кpах,
Солнце вспыхнет на штыках.
И толпу на смеpть погонит вновь.

Припев.

 






                       


Copyright © Музыкальный Портал на Куличках 1999-2007      music@kulichki.com


    Stolica.ru    
Реклама в Интернет