Stolica.ru Реклама на Куличках     

Аккорды песен:
A B C D E F G H I J K L M N O P Q R S T U V W X Y Z
АБВГДЕЖЗИКЛМНОПРСТУФХЦЧШЩЭЮЯ





Тексты песен :     A B C D E F G H I J K L M N O P Q R S T U V W X Y Z #

ПОЛНЫЙ СПИСОК ПЕСЕН ГРУППЫ




-->



АРИЯ   

Паранойя
--------
tabbed by Vladimir Gelfand ("Little Prince")


Tempo: moderately slow (87 bpm)

Measure: 12/8 (in Intro only)

(0:01 - 0:36)

INTRO:
Gtr.1E|-------------------------------------------------|-------------------------------------------------|
     H|-------------------------7h9-7h9-7h9--7~~~~------|-------------------------7h9-7h9-7h9--7~~~~------|
     G|-9-----------------------9---9---9-----------9---|-------------------------9---9---9-----------9---|
     D|-------------------------------------------------|-9-----------------------------------------------|
     A|-------------------------------------------------|-------------------------------------------------|
     E|-------------------------------------------------|-------------------------------------------------|
      |                                                 |                                                 |
Bass G|---------9-------9---------------9-------9-------|---------4-------4---------------4-------4-------|
     D|-----9-------9-------9-------9-------9-------9---|-----4-------4-------4-------4-------4-------4---|
     A|-7-----------------------7-----------------------|-2-----------------------2-----------------------|
     E|-------------------------------------------------|-------------------------------------------------|
 
Gtr.1E|-------------------------------------------------|-------------------------------------------------|
     H|-------------------------7h9-7h9-7h9--7~~~~--9---|-10~~--9h10p9------------------------------------|
     G|-8bend9release8--6~~~~---9---9---9---------------|-------------11~~--9h11p9------------------------|
     D|-------------------------------------------------|-------------------------12~~-11h12p11-9~~~----7---|
     A|-------------------------------------------------|-------------------------------------------------|
     E|-------------------------------------------------|-------------------------------------------------|
      |                                                 |                                                 |
Bass G|---------6-------6---------------6-------6-------|---------7-------7---------------7-------7-------|
     D|-----6-------6-------6-------6-------6-------6---|-----7-------7-------7-------7-------7-------7---|
     A|-4-----------------------4-----------------------|-5-----------------------5-----------------------|
     E|-------------------------------------------------|-------------------------------------------------|
 
Gtr.1E|-------------------------------------------------|-7~~~~~~~~~~~~~~--------5h7-5h7-5h7--9~~~~~--7---|
     H|-------------------------7h9-7h9-7h9--7~~~~------|-------------------------------------------------|
     G|-9-----------------------9---9---9-----------9---|-------------------------------------------------|
     D|-------------------------------------------------|-------------------------------------------------|
     A|-------------------------------------------------|-------------------------------------------------|
     E|-------------------------------------------------|-------------------------------------------------|
      |                                                 |                                                 |
Bass G|---------9-------9---------------9-------9-------|---------4-------4---------------4-------4-------|
     D|-----9-------9-------9-------9-------9-------9---|-----4-------4-------4-------4-------4-------4---|
     A|-7-----------------------7-----------------------|-2-----------------------2-----------------------|
     E|-------------------------------------------------|-------------------------------------------------|
 
Gtr.1E|-------------------------------------------------|----------------------------------- ritenuto ----|
     H|-10bend12rel-10-p9~~~~---7h9-7h9-7h9--7~~~~--9---|-10~~--9h10p9------------------------------------|
     G|-------------------------9---9---9---------------|-------------11~~--9h11p9------------------------|
     D|-------------------------------------------------|-------------------------12~~-11h12p11-9~~~----7---|
     A|-------------------------------------------------|-------------------------------------------------|
     E|-------------------------------------------------|-------------------------------------------------|
      |                                                 |                                                 |
Bass G|---------6-------6---------------6-------6-------|---------7-------7---------------7-------7-------|
     D|-----6-------6-------6-------6-------6-------6---|-----7-------7-------7-------7-------7-------7---|
     A|-4-----------------------4-----------------------|-5-----------------------5-----------------------|
     E|-------------------------------------------------|----------------------------------- ritenuto ----|

Measure: changes to normal (4/4)

(0:36 - 0:47)

RIFF 1: (Gtr.2 w/max distortion)

Gtr.2E|--------------------------------------------------|
     H|--------------------------------------------------|
     G|--------------------------------------------------|
     D|------- drum fill -----------------------------0--|
     A|-----------------------------------------------0--|
     E|--------------------------------------------------|
Gtr.2E|--------------------------------------------------|-------------------------------------------------|
     H|--------------------------------------------------|-------------------------------------------------|
     G|--------------------------------------------------|----------------------2-----3-p2-p0--2-p0--------|
     D|-(0)h2-----------------0---h-2-----------------0--|(0)h2-----------------2--------------------2--0--|
     A|-(0)h2--------5--------0---h-2--------5--------0--|(0)h2--------5--------0-----------------------0--|
     E|--------0--0--3--0--0-----------0--0--3--0--0-----|-------0--0--3--0--0-----------------------------|
               .  .  >  .  .           .  .  >  .  .             .  .  >  .  .  >
                                                                                                    Ya ra-
Gtr.2E|--------------------------------------------------|-------------------------------------------------|
     H|--------------------------------------------------|-------------------------------------------------|
     G|--------------------------------------------------|----------------------2-----3-p2-p0--2--R--------|
     D|-(0)h2-----------------0---h-2-----------------0--|(0)h2-----------------2-----------------E--------|
     A|-(0)h2--------5--------0---h-2--------5--------0--|(0)h2--------5--------0-----------------S--------|
     E|--------0--0--3--0--0-----------0--0--3--0--0-----|-------0--0--3--0--0--------------------T--------|
               .  .  >  .  .           .  .  >  .  .             .  .  >  .  .  >

(0:48 - 1:09)

VERSE 1:

VoiceE|----------------------------------------------------------------------------------------------------|
     H|----------------------------------------------------------------------------------------------------|
     G|--4-----------------------------------------4---4---4-----------------------4-----4--4--2----2----2-|
     D|----2----2----2-----2--2--2-----2---2-5-------------------2----2-2------2-2-------------------------|
     A|----------------------------------------------------------------------------------------------------|
     E| botal  kak  volk, no ne vyl   na  lunu.   Kazhdyy den'  ya  privyk     uhodit'  na voynu. Zdes' vo-|
      |                                                  |                                                 |
Gtr.2E|--------------------------------------------------|-------------------------------------------------|
     H|--------------------------------------------------|-------------------------------------------------|
     G|--------------------------------------------------|-------------------------------------------------|
     D|--0-h2--------2-----------2-----------2-----------|-0-h2---------2----------2-----------2-----------|
     A|--0-h2--------2-----------2-----------2-----------|-0-h2---------2----------2-----------2-----------|
     E|--------------------------------------------------|-------------------------------------------------|
 
VoiceE|----------------------------------------------------------------------------------------------------|
     H|----------------------------------------------------------------------------------------------------|
     G|--2--------------------------------------------------------------------------------------------4-4--|
     D|----4------4--4-----------------------4------5------4------------2----------------------------------|
     A|-------------------5---5--5--5---5--5---------------------------------------------------------------|
     E| yuesh'  vsegda   za kresty,za zvezdy i     za     voz    -     duh.                         V etoy |
      |                                                  |                                                 |
Gtr.2E|--------------------------------------------------|-------------------------------------------------|
     H|--------------------------------------------------|-------------------------------------------------|
     G|---sl.--------------------------------------------|----------------------2-----3-p2-p0--2-p0--------|
     D|--5-/7--------7-----------7-----------7-----------|-0-h2---------2-------2--------------------2-p0--|
     A|--3-/5--------5-----------5-----------5-----------|-0-h2---------2-------0--------------------------|
     E|--------------------------------------------------|-------------------------------------------------|
 
       pyanoy   strane  est' na kazhdogo  knut.   Zdes' poyut    o  dushe   i v neyo zhe  plyuyut - kak naz-
Gtr.2E|--------------------------------------------------|-------------------------------------------------|
     H|--------------------------------------------------|-------------------------------------------------|
     G|--------------------------------------------------|-------------------------------------------------|
     D|--0-h2--------2-----------2-----------2-----------|-0-h2---------2----------2-----------2-----------|
     A|--0-h2--------2-----------2-----------2-----------|-0-h2---------2----------2-----------2-----------|
     E|--------------------------------------------------|-------------------------------------------------|
        lo,  kak nazlo, kak nazlo,ya ponyal slishkom      pozd    -    no.
Gtr.2E|--------------------------------------------------|-------------------------------------------------|
     H|--------------------------------------------------|-------------------------------------------------|
     G|---sl.--------------------------------------------|-------------------------------------------------|
     D|--5-/7--------7-----------7-----------7-----------|-0-h2---------2-------2--------2-p1-p0--------4--|
     A|--3-/5--------5-----------5-----------5-----------|-0-h2---------2-------2-----------------4-p3--2--|
     E|--------------------------------------------------|----------------------0--------------------------|

(1:09 - 1:20)

BRIDGE:
        E - ta zhizn'    ne dlya be - lyh.                 E - ta zhizn'  ne dlya chernyh,   net
Gtr.2E|--------------------------------------------------|-------------------------------------------------|
     H|--------------------------------------------------|-------------------------------------------------|
     G|--------------------------------------------------|-------------------------------------------------|
     D|-(4)----------------------5-----------7-/9-----4--|-(4)---------------------5-----2-p1-p0--------4--|
     A|-(2)----------------0--2--3-----------5-/7-----2--|-(2)---------------0--2--3--------------4-p3--2--|
     E|--------------------------------0--0--------0-----|-------------------------------------------------|
                                       .  .        .
        E - ta zhizn'     bez nadezh - dy   na pros - vet.
Gtr.2E|--------------------------------------------------|-------------------------------------------------|
     H|--------------------------------------------------|-------------------------------------------------|
     G|--------------------------------------------------|-------------------------------------------------|
     D|-(4)----------------------5-----5-----4--2-----4--|-(4)---5-----6-----7-----8-----9-----10----12----|
     A|-(2)----------------0--2--3-----3-----2--0-----2--|-(2)------5-----6-----7-----8-----9-----10-------|
     E|--------------------------------------------------|-------------------------------------------------|
(1:21 - 1:42)
CHORUS:
VoiceE|---------------------------------------------------------------------------------------------------|
     H|---------------------------------------------------------------------------------------------------|
     G|---------------------------------------------------------------------------------------------------|
     D|-------------------------6--6----6-4--------------6------------------------6--6---6----4-----------|
     A|--------------------------------------------7------------------------------------------------7-----|
     E|--------------------   Gde-to  lyubov'    svet - la,                     gde-to  vo - da   chis -  |
      |                                                 |                                                 |
Gtr.1E|-------------------------------------------------|-------------0-----------------------------------|
     H|-------------7-----------------------------------|-------4--------4--------------------------------|
     G|-------9--8-----9--------------------------------|----4-----4--------4-----------------------------|
     D|----9--------------9--6--------------------------|----------------------4--------------------------|
     A|-7-----------------------7-----------------------|-2-----------------------2-----------------------|
     E|-------------------------------------------------|-------------------------------------------------|
      |                                                 |                                                 |
Bass G|-------------------------------------------------|-------------------------------------------------|
     D|-------------------------9-----6-----9-----6-----|-------------------------------------------------|
     A|-7--7--7--7-----------7-----7-----7-----7-----7--|-------------------------9-----6-----9-----6-----|
     E|-------------------------------------------------|-7--7--7--7-----------7-----7-----7-----7-----7--|
 
VoiceE|---------------------------------------------------------------------------------------------------|
     H|---------------------------------------------------------------------------------------------------|
     G|---------------------------------------------------------------------------------------------------|
     D|---------------------6--6---6--6---6-----4----6----7-------6---4-----------------------------------|
     A|--7----------4---------------------------------------------------------7---6-----------------------|
     E| ta    -     a,      i ne stuchitsya v dver' be - da   -   a - a   -   a - a.    ------------------|
      |                                                 |                                                 |
Gtr.1E|-------------------------------------------------|-------------------------------------------------|
     H|-------------4-----------------------------------|-------------------------------------------------|
     G|-------6--------6--------------------------------|-------------------------------------------------|
     D|----6-----6--------6-----------------------------|-------------------------------------------------|
     A|-4--------------------7--4-----------------------|-5-----------------------------------------------|
     E|-------------------------------------------------|-------------------------------------------------|
      |                                                 |                                                 |
Bass G|-------------------------------------------------|-------------------------------------------------|
     D|-------------------------6-----------6-----------|-------------------------------------------------|
     A|-4--4--4--4-----------4-----4--7--4-----4--7--4--|-5---------0h5--7-------/9-----7-----5---0h9-----|
     E|-------------------------------------------------|-------------------------------------------------|
 
VoiceE|---------------------------------------------------------------------------------------------------|
     H|---------------------------------------------------------------------------------------------------|
     G|--------------------------------------------4------4-----------------------4---4---4----6-----4----|
     D|-------------------------6--6---6----4-------------------------------------------------------------|
     A|---------------------------------------------------------------------------------------------------|
     E|--------------------   Gde-to  po - koy     i    svet,                    no  tol'ko   nas   tam  -|
      |                                                 |                                                 |
Gtr.1E|-------------------------------------------------|-------------0-----------------------------------|
     H|-------------7-----------------------------------|-------4--------4--------------------------------|
     G|-------9--8-----9--------------------------------|----4-----4--------4-----------------------------|
     D|----9--------------9--6--------------------------|----------------------4--------------------------|
     A|-7-----------------------7-----------------------|-2-----------------------2-----------------------|
     E|-------------------------------------------------|-------------------------------------------------|
      |                                                 |                                                 |
Bass G|-------------------------------------------------|-------------------------------------------------|
     D|-------------------------9-----6-----9-----6-----|-------------------------------------------------|
     A|-7--7--7--7-----------7-----7-----7-----7-----7--|-------------------------9-----6-----9-----6-----|
     E|-------------------------------------------------|-7--7--7--7-----------7-----7-----7-----7-----7--|
 
                                                       1. >>-------------------------------------------->>
VoiceE|---------------------------------------------------------------------------------------------------|
     H|---------------------------------------------------------------------------------------------------|
     G|---------------------------------------------------------------------------------------------------|
     D|--6-----4------------6---6--6-6----6----4-6--------7-----------------------------------------------|
     A|------------7--------------------------------------------------------------------------------------|
     E| ne  -  e - et.     Nam ne byvat' tam  nikog   -  da.     -----------------------------------------|
      |                                                 |                                                 |
Gtr.1E|-------------------------------------------------|-------------------------------------------------|
Gtr.2H|-------------4-----------------------------------|------------------------------------------ Riff 1 ->
     G|-------6--------6--------------------------------|-7------------- drum fill -----------------------|
     D|----6-----6--------6-----------------------------|-7--------------------------------------------0--|
     A|-4--------------------7--4-----------------------|-5--------------------------------------------0--|
     E|-------------------------------------------------|-------------------------------------------------|
      |                                                 |                                                 |
Bass G|-------------------------------------------------|-------------------------------------------------|
     D|-------------------------6-----------6-----------|-------------------------------------------------|
     A|-4--4--4--4-----------4-----4--7--4-----4--7--4--|-5--------------------------------------------5--|
     E|-------------------------------------------------|-------------------------------------------------|

(1:43 - 1:53) Repeat RIFF 1

(1:54 - 2:15) VERSE 2

(2:15 - 2:26) BRIDGE

(2:27 - 2:51) CHORUS, with

alternative ending: (chords are implied by bass)

                                                       2. >>-------------------------------------------->>
        ne  -  e - et.     Nam ne byvat' tam  nikog   -  da.   
Gtr.1E|-Cm#---------------------------------------------|-D-----------------------E-----------------------|
     H|-------------4-----------------------------------|-------------5-----------------------7-----------|
     G|-------6--------6--------------------------------|-------7--------7--------------9--------9--------|
     D|----6-----6--------6-----------------------------|----7-----7--------7--------9-----9--------9-----|
     A|-4--------------------7--4-----------------------|-5--------------------9-----------------------11-|
     E|-------------------------------------------------|-------------------------------------------------|


Gtr.1E|-Fm#---------------------G-----------------------|
     H|-------------9-----------------------10----------|
     G|-------11-------11-------------12-------12-------|
     D|----11----11-------11-------12----12-------12----|
     A|----------------------12----------------------14-|
     E|-------------------------------------------------|

(2:51 - 3:47)

SOLO:

Gtr.1E|------------------------------------------------------------------|-----------------------------12----------------------------------|
     H|--12~~~~~~~~~~~~~~----------------12--11------11--10------10------|-----------------------------10bend12release10-------------------|
     G|------------------------------------------9-----------12------12--|-9-12p9-12p9-12p9-12p9-12p9-12p9-----------------------9\--------------|
     D|------------------------------------------------------------------|--------------------------12-------------------------------------|
     A|------------------------------------------------------------------|-----------------------------------------------------------------|
     E|------------------------------------------------------------------|-----------------------------------------------------------------|
      |                                                                  |                                                                 |
Gtr.2E|------------------------------------------------------------------|-----------------------------------------------------------------|
     H|------------------------------------------------------------------|-----------------------------------------------------------------|
     G|------------------------------------------------------------------|-----------------------------------------------------------------|
     D|----------4-----------3-----------4-----------3-------------------|---------4-----------3-----------4-----------3-------------------|
     A|----------2-----------1-----------2-----------1-------2-p-1-------|---------2-----------1-----------2-----------1-------2-p-1-------|
     E|--0---0-------0---0-------0---0-------0---0-------------------3---|-0---0-------0---0-------0---0-------0---0-------------------3---|
 
Gtr.1E|------------------------------------------------------------------|-17--19--20--15--17--14--15--12--14--11--12------11--------------|
     H|------------------------------------------------------------------|---------------------------------------------13------12--13-p12--|
     G|--9h10h11---11--11-/12-<12>-12-/14-<14>-14-/15-<15>-14h15h16-----<17>-|-----------------------------------------------------------------|
     D|---------------------A.H.--------A.H.--------A.H.-----------A.H.--|-----------------------------------------------------------------|
     A|------------------------------------------------------------------|-----------------------------------------------------------------|
     E|------------------------------------------------------------------|-----------------------------------------------------------------|
      |                                                                  |                                                                 |
Gtr.2E|------------------------------------------------------------------|-----------------------------------------------------------------|
     H|------------------------------------------------------------------|-----------------------------------------------------------------|
     G|------------------------------------------------------------------|-----------------------------------------------------------------|
     D|----------4-----------3-----------4-----------3-------------------|-----------------------------------------------------------------|
     A|----------2-----------1-----------2-----------1-------2-p-1-------|---------------------------------2-------2---3---2---3---5--/6---|
     E|--0---0-------0---0-------0---0-------0---0-------------------3---|-0---2---3---2---3---5---3---5-------5---------------------------|
 
Gtr.1E|--------------------------18--19----------------------------------|-----------------------------------------------------------------|
     H|-----------------------0----------19--20--------------------------|-----------------------------------------------------------------|
     G|-14b16~~~~~~~-----------------------------15--16------------------|----------------------------------------------- A.H. ------------|
     D|--------------------------------------------------16--17--13--14--|--------------------------------14b16-----------<14>~~~~~~~~~~~--|
     A|------------------------------------------------------------------|-13tr14~~~~~~~~~~~~~~~~~~~~~~------------------------------------|
     E|------------------------------------------------------------------|--- trill -------------------------------------------------------|
      |                                                                  |                                                                 |
Gtr.2E|------------------------------------------------------------------|-----------------------------------------------------------------|
     H|------------------------------------------------------------------|-----------------------------------------------------------------|
     G|------------------------------------------------------------------|-----------------------------------------------------------------|
     D|----------4-----------3-----------4-----------3-------------------|---------4-----------3-----------4-----------3-------------------|
     A|----------2-----------1-----------2-----------1-------2-p-1-------|---------2-----------1-----------2-----------1-------2-p-1-------|
     E|--0---0-------0---0-------0---0-------0---0-------------------3---|-0---0-------0---0-------0---0-------0---0-------------------3---|
 
Gtr.1E|--------------------------------------------------------------11--|-12------0-h-13----------14----------15----------16------17--17--|
     H|--------------------------------------------------13--12----------|-----11----------12----------13----------14----------15----------|
     G|----------------------------------14--12------14----------14------|-----------------------------------------------------------------|
     D|--13----------13--16--14--13--16----------16----------------------|-----------------------------------------------------------------|
     A|------15--14------------------------------------------------------|-----------------------------------------------------------------|
     E|------------------------------------------------------------------|-----------------------------------------------------------------|
      |                                                                  |                                                                 |
Gtr.2E|------------------------------------------------------------------|-----------------------------------------------------------------|
     H|------------------------------------------------------------------|-----------------------------------------------------------------|
     G|------------------------------------------------------------------|-----------------------------------------------------------------|
     D|----------4-----------3-----------4-----------3-------------------|-----------------------------------------------------------------|
     A|----------2-----------1-----------2-----------1-------2-p-1-------|---------------------------------2-------2---3---2---3---5---5---|
     E|--0---0-------0---0-------0---0-------0---0-------------------3---|-0---2---3---2---3---5---3---5-------5---------------------------|
 
Gtr.1E|-17b19--------17b19~~~~~--14h15--15b17~~~~~~~~~-------------------|-----------------------------------------------------------------|
     H|------------------------------------------------------------------|-----------------------------------------------------------------|
     G|--------------------------------------------------------------8---|(8)-11p8-11p8-11p8-11p8-11p8-11p8---------------------------------------|
     D|------------------------------------------------------------------|-----------------------------9-^---------------------------------|
     A|------------------------------------------------------------------|------------------------------- bend 1/4 ------------------------|
     E|------------------------------------------------------------------|-----------------------------------------------------------------|
      |                                                                  |                                                                 |
Gtr.2E|------------------------------------------------------------------|-----------------------------------------------------------------|
     H|------------------------------------------------------------------|-----------------------------------------------------------------|
     G|------------------------------------------------------------------|-----------------------------------------------------------------|
     D|--4-----------4-------------------5---------------7--/9-------4---|-(4)---------4-------------------5-------2-p-1-p-0-----------4---|
     A|--2-----------2-----------0---2---3---------------5--/7-------2---|-(2)---------2-----------0---2---3-------------------4-p-3---2---|
     E|------------------------------------------0---0-----------0-------|-----------------------------------------------------------------|
 
Gtr.1E|------------------------------------------------------------------|-----------------------------------------------------------------|
     H|-8-12p8p0-12p8p0-12p8p0-12p8p0-12p8h12\10p7p0-10p7p0-10p7p0-10p7p0-10p7p0-10p7-|-------------------------------------------------10--11--12--13--|
     G|------------------------------------------------------------------|---------------------------------10--11--12--13------------------|
     D|------------------------------------------------------------------|------------------9--10--12--13----------------------------------|
     A|------------------------------------------------------------------|-----------------------------------------------------------------|
     E|------------------------------------------------------------------|-----------------------------------------------------------------|
      |                                                                  |                                                                 |
Gtr.2E|------------------------------------------------------------------|-----------------------------------------------------------------|
     H|------------------------------------------------------------------|-----------------------------------------------------------------|
     G|------------------------------------------------------------------|-----------------------------------------------------------------|
     D|-(4)----------4-------------------5---------------7--/9-------4---|-(4)-----5-------6-------7-------8-------9-------10------12------|
     A|-(2)----------2-----------0---2---3---------------5--/7-------2---|-(2)---------5-------6-------7-------8-------9-------10----------|
     E|------------------------------------------0---0-----------0-------|-----------------------------------------------------------------|
 
Gtr.1E|--12~~~~~~~~~~~-------------------11~~~~~~~~~~~-------------------|-10~~~~~~~~~~~~--------------9---8-p-5---------------------------|
     H|------------------------------------------------------------------|-----------------------------------------5-----------------------|
     G|------------------------------------------------------------------|---------------------------------------------8---8---7---5-------|
     D|------------------------------------------------------------------|-------------------------------------------------------------7---|
     A|------------------------------------------------------------------|-----------------------------------------------------------------|
     E|------------------------------------------------------------------|-----------------------------------------------------------------|
      |                                                                  |                                                                 |
Gtr.2E|------------------------------------------------------------------|-----------------------------------------------------------------|
     H|------------------------------------------------------------------|-----------------------------------------------------------------|
     G|------------------------------------------------------------------|-----------------------------------------------------------------|
     D|----------9-----------8-----------9-----------8-------------------|---------9-----------8-----------9-----------8-------------------|
     A|--0---0---7---0---0---6---0---0---7---0---0---6-------7-p-6-------|-0---0---7---0---0---6---0---0---7---0---0---6-------7-p-6-------|
     E|--------------------------------------------------------------8---|-------------------------------------------------------------8---|
 
Gtr.1E|------------------------------------------------------------------|-----------------------------------------------------------------|
     H|-------------------------------------------------------------T---T----T---T---T---T---T---T---T---T---------------------------------|
     G|-------------------------------------------------------------9p5-9-p7-10p7-11p7-12p7-13p7-14p7-15p7-16p7-17p7----......-----7~~~~~~~~~~~~---|
     D|--7---5---7p5p0-7p5p0h7---5---7p5p0-7p5p0-7p5p0-7p5p0-7p5p0-7p5p0-7p5p0-7p5p0--------|---------------------------------(some more taps?)---------------|
     A|------------------------------------------------------------------|-----------------------------------------------------------------|
     E|------------------------------------------------------------------|-----------------------------------------------------------------|
      |                                                                  |                                                                 |
Gtr.2E|------------------------------------------------------------------|-----------------------------------------------------------------|
     H|------------------------------------------------------------------|-----------------------------------------------------------------|
     G|------------------------------------------------------------------|-----------------------------------------------------------------|
     D|----------9-----------8-----------9-----------8-------------------|---------------------------------------------------------5--/6---|
     A|--0---0---7---0---0---6---0---0---7---0---0---6-------7-p-6-------|---------------------5-------5---7---5---7---8---7---8-----------|
     E|--------------------------------------------------------------8---|-5---7---8---7---8-------8---------------------------------------|
 
Gtr.1E|------------------------------------------------------------------|-----------------------------------------------------------------|
     H|----3-h4-h5-p4-p3---3-h4-h5-p4-p3---3-h4-h5-p4-p3---3-h4-h5-p4-p3-|----3-h4--6-p5-p4--5-p4-p3-----3-h4--6-p5-p4--5-p4-p3-----4-h5--6-p5-p4--|
     G|--5---------------5---------------5---------------5---------------|-5-----------------------5-----------------------5---------------|
     D|------------------------------------------------------------------|-----------------------------------------------------------------|
     A|------------------------------------------------------------------|-----------------------------------------------------------------|
     E|------------------------------------------------------------------|-----------------------------------------------------------------|
      |                                                                  |                                                                 |
Gtr.2E|------------------------------------------------------------------|-----------------------------------------------------------------|
     H|------------------------------------------------------------------|-----------------------------------------------------------------|
     G|------------------------------------------------------------------|-----------------------------------------------------------------|
     D|----------9-----------8-----------9-----------8-------------------|---------9-----------8-----------9-----------8-------------------|
     A|--0---0---7---0---0---6---0---0---7---0---0---6-------7-p-6-------|-0---0---7---0---0---6---0---0---7---0---0---6-------7-p-6-------|
     E|--------------------------------------------------------------8---|-------------------------------------------------------------8---|
 
Gtr.1E|---------------------------------5h8p5p0-7p5-8p5p0-7p5------/-10--|-12--10--8-------------------------------------------------------|
     H|-5-8p5p0-7p5-8p5p0-7p5-8p5p0-7p5----------------------------------|-------------12--10--8-------------------------------------------|
     G|------------------------------------------------------------------|------------------------10---9---7-------------------------------|
     D|------------------------------------------------------------------|------------------------------------10---9---7---6---------------|
     A|------------------------------------------------------------------|-----------------------------------------------------8---7---5---|
     E|------------------------------------------------------------------|-----------------------------------------------------------------|
      |                                                                  |                                                                 |
Gtr.2E|------------------------------------------------------------------|-----------------------------------------------------------------|
     H|------------------------------------------------------------------|-----------------------------------------------------------------|
     G|------------------------------------------------------------------|-----------------------------------------------------------------|
     D|----------9-----------8-----------9-----------8-------------------|---------------------------------------------------------5--/6---|
     A|--0---0---7---0---0---6---0---0---7---0---0---6-------7-p-6-------|---------------------5-------5---7---5---7---8---7---8-----------|
     E|--------------------------------------------------------------8---|-5---7---8---7---8-------8---------------------------------------|
 
Gtr.1E|------------------------------------------------------------------|
Gtr.2H|------------------------------------------------------------------|
     G|------------------------------------------------------------------|
     D|--7------------------  drum fill  ----------------------------0---|
     A|--7-----------------------------------------------------------0---|
     E|--5---------------------------------------------------------------|

(3:47 - 3:58)

Repeat RIFF 1:

E|--------------------------------------------------|-------------------------------------------------|
H|--------------------------------------------------|-------------------------------------------------|
G|--------------------------------------------------|----------------------2-----3-p2-p0--2-p0--------|
D|-(0)h2-----------------0---h-2-----------------0--|(0)h2-----------------2--------------------2--0--|
A|-(0)h2--------5--------0---h-2--------5--------0--|(0)h2--------5--------0-----------------------0--|
E|--------0--0--3--0--0-----------0--0--3--0--0-----|-------0--0--3--0--0-----------------------------|
          .  .  >  .  .           .  .  >  .  .             .  .  >  .  .  >
                                                                                              Ya vche-
E|--------------------------------------------------|-------------------------------------------------|
H|--------------------------------------------------|-------------------------------------------------|
G|--------------------------------------------------|----------------------2-----3-p2-p0--2--R--------|
D|-(0)h2-----------------0---h-2-----------------0--|(0)h2-----------------2-----------------E--------|
A|-(0)h2--------5--------0---h-2--------5--------0--|(0)h2--------5--------0-----------------S--------|
E|--------0--0--3--0--0-----------0--0--3--0--0-----|-------0--0--3--0--0--------------------T--------|
          .  .  >  .  .           .  .  >  .  .             .  .  >  .  .  >

(3:58 - 4:56)

VERSE 3:

   ra   videl krys,zavtra gryanet   chuma,    i  poydyot    pirovat',  podzhiga - ya   doma. Vsem raz-
E|--------------------------------------------------|-------------------------------------------------|
H|--------------------------------------------------|-------------------------------------------------|
G|--------------------------------------------------|-------------------------------------------------|
D|--0-h2--------2-----------2-----------2-----------|-0-h2--------2-----------2-----------2-----------|
A|--0-h2--------2-----------2-----------2-----------|-0-h2--------2-----------2-----------2-----------|
E|--------------------------------------------------|-------------------------------------------------|

  dast  po krestu  i na strashnyy sud otpra - vit  stro    -     yem.                           A  se-
E|--------------------------------------------------|-------------------------------------------------|
H|--------------------------------------------------|-------------------------------------------------|
G|--------------------------------------------------|----------------------2-----3-p2-p0--2-p0--------|
D|--5-/7--------7-----------7-----------7-----------|-0-h2--------2--------2--------------------2-p0--|
A|--3-/5--------5-----------5-----------5-----------|-0-h2--------2--------0--------------------------|
E|--------------------------------------------------|-------------------------------------------------|

   godnya vse pyut,chtob ne vyt'  na lunu.   Pir vo vremya  chumy, kto est' kto   ne  poymu.    Ya be-
E|--------------------------------------------------|-------------------------------------------------|
H|--------------------------------------------------|-------------------------------------------------|
G|--------------------------------------------------|-------------------------------------------------|
D|--0-h2--------2-----------2-----------2-----------|-0-h2--------2-----------2-----------2-----------|
A|--0-h2--------2-----------2-----------2-----------|-0-h2--------2-----------2-----------2-----------|
E|--------------------------------------------------|-------------------------------------------------|

   gu  chtoby zhit',  a vokrug likuyet pa - ra  -  noy    -    ya.                              Ya be- 
E||-------------------------------------------------|-------------------------------------------------||
H||-------------------------------------------------|-------------------------------------------------||
G||-------------------------------------------------|-------------------------------------------------||}  Repeat 6
D||-5-/7--------7-----------7-----------7--------0--|(0)h2-----------------0---h-2--------------------||}  times, then
A||-3-/5--------5-----------5-----------5--------0--|(0)h2--------5--------0---h-2--------5-----------||}  start fading
E||-------------------------------------------------|-------0--0--3--0--0-----------0--0--3--0--0--0--||} w/vocal reverb
                                                            .  .  >  .  .           .  .  >  .  .  .

 






                       


Copyright © Музыкальный Портал на Куличках 1999-2007      music@kulichki.com


    Stolica.ru    
Реклама в Интернет