Stolica.ru Реклама на Куличках     

Аккорды песен:
A B C D E F G H I J K L M N O P Q R S T U V W X Y Z
АБВГДЕЖЗИКЛМНОПРСТУФХЦЧШЩЭЮЯ





Тексты песен :     A B C D E F G H I J K L M N O P Q R S T U V W X Y Z #

ПОЛНЫЙ СПИСОК ПЕСЕН ГРУППЫ




-->




АРИЯ   

              БЕГИ ЗА СОЛHЦЕМ
            ------------------
tabbed by Vladimir Gelfand ("Little Prince")

Tempo: moderately (133 bpm)

INTRO:

(0:01 - 0:43)

RIFF 1 (Guitars 2,3 w/heavy distortion) (repeat 3 times):

Gtr.1E||-------------------------|--------------------------|-------------------------|--------------------------|
     H||-------------------------|--------------------------|-------------------------|--------------------------|
     G||-------------------------|--------------------------|-------------------------|--------------------------|
     D||-------------------------|--------------------------|-5--5--------------------|--------------------------|
     A||-2--2--------------------|--------------------------|-3--3--------------------|--------------------------|
     E||-0--0--------------------|--------------------------|-------------------------|--------------------------|
      ||                         |                          |                         |                          |
Gtr.2E||-------------------------|--------------------------|-------------------------|--------------------------|
Gtr.3H||-------------------------|--------------------------|-------------------------|--------------------------|
     G||-------5--4-----2--5--4--|-(4)-2--5--4--------2-----|-------5--4-----2--5--4--|-(4)-2--5--4~~~~~~--------|
     D||-------5--4-----2--5--4--|-(4)-2--5--4--------2-----|-------5--4-----2--5--4--|-(4)-2--5--4~~~~~~--------|
     A||-------------------------|--------------------------|-------------------------|--------------------------|
     E||-------------------------|--------------------------|-------------------------|--------------------------|
 
Gtr.1E|-------------------------|--------------------------|-------------------------|--------------------------||
     H|-------------------------|--------------------------|-------------------------|--------------------------||
     G|-------------------------|--------------------------|-------------------------|--------------------------||
     D|-------------------------|--------------------------|-4--4--------------------|--------------------------||
     A|-7--7--------------------|--------------------------|-2--2--------------------|--------------------------||
     E|-5--5--------------------|--------------------------|-------------------------|--------------3-2-3-5-3-2-||
      |                         |                          |                         |                          ||
Gtr.2E|-------------------------|--------------------------|-------------------------|--------------------------||
Gtr.3H|-------------------------|--------------------------|-------------------------|--------------------------||
     G|-------4--3-----0--4--3--|-(3)-0--4--3--------0-----|-------4--3-----0--4--3--|-(3)-0--4-----------------||
     D|-------5--4-----2--5--4--|-(4)-2--5--4--------2-----|-------5--4-----2--5--4--|-(4)-2--5-----------------||
     A|-------------------------|--------------------------|-------------------------|--------------------------||
     E|-------------------------|--------------------------|-------------------------|--------------------------||

(0:43 - 0:50)

RIFF 2:

Gtr.4E|-------------0-----------|-2-----------0-----------|-------------0-----------|-2-----------0-----------|
cleanH|----------0-----0--------|----0-----------0--------|----------0-----0--------|----0-----------0--------|
     G|-------0-----------0-----|-------0-----------0-----|-------0-----------0-----|-------0-----------0-----|
     D|----2-----------------2--|----------2-----------2--|----2-----------------2--|----------2-----------2--|
     A|-------------------------|-------------------------|-------------------------|-------------------------|
     E|-0-----------------------|-------------------------|-0-----------------------|-------------------------|
      |                         |                         |                         |                         |
SynthE|-------------------------|-------------------------|-------------------------|-------------------------| 
     H|-12----------------------|-11----------8-----------|-------------------------|-------------------------|
     G|-9-----------------------|-9-----------9-----------|-9-----------------------|-------------------------|
     D|-------------------------|-------------------------|-9-----------------------|-8-----------5-----------|
     A|-------------------------|-------------------------|-------------------------|-7-----------7-----------|
     E|-------------------------|-------------------------|-------------------------|-------------------------|

(0:50 - 1:19)

VERSE 1:

VoiceE|-------------------------------------------------------------------------------------------------------|
     H|-------------------------------------------------------------------------------------------------------|
     G|---4--4--4---4---------------------------------------3-3-----3---3-------------------------------------|
     D|-----------------2----4----5------------------------------------------1---2---4------------------------|
     A|-------------------------------------------------------------------------------------------------------|
     E| V vozduhe  pahnet   be - doy                      tzelyh  dve  ty - syachi  let         --------------|
      |                         |                         |                         |                         |
Gtr.4E|-------------0-----------|-2-----------0-----------|-------------0-----------|-2-----------0-----------|
     H|----------0-----0--------|----0-----------0--------|----------0-----0--------|----0-----------0--------|
     G|-------0-----------0-----|-------0-----------0-----|-------0-----------0-----|-------0-----------0-----|
     D|----2-----------------2--|----------2-----------2--|----2-----------------2--|----------2-----------2--|
     A|-------------------------|-------------------------|-3-----------------------|-------------------------|
     E|-0-----------------------|-------------------------|-------------------------|-------------------------|
      |                         |                         |                         |                         |
Bass G|-------------------------|-------------------------|-------------------------|-------------------------|
     D|-------------------------|-------------------------|-------------------------|-------------------------|
     A|-------------------------|----------------------2--|-3-----------------------|-------------------2-h3--|
     E|-0-----------------------|----------------0--3-----|-------------------------|-------------------------|
 
VoiceE|-------------------------------------------------------------------------------------------------------|
     H|-------------------------------------------------------------------------------------------------------|
     G|--2----2----2--2----2------------------2---------------------------------------------------------------|
     D|------------------------------4-4-5----------5--4----2--2----------------------------------------------|
     A|-------------------------------------------------------------------------------------------------------|
     E|Zhizn tak zhesto - ka        na etoy pro - klyatoy  zemle..    ----------------------------------------|
      |                         |                         |                         |                         |
Gtr.1E|-------------------------|-------------------------|-------------------------|-------------------------|
     H|-------------------------|-------------------------|-------------------------|-------------------------|
     G|-------------------------|-------------------------|-------------------------|----3--------2-----0-----|
     D|-------------------------|-------------------------|-------------------------|----3--------2-----0-----|
     A|-------------------------|-------------------------|-------------------------|----1--------0-----x-----|
     E|-------------------------|-------------------------|-------------------------|-0--------0--------3-----|
      |                         |                         |                         |                         |
Gtr.4E|-------------0-----------|-2-----------0-----------|-------------0-----------|-------------------------|
     H|----------0-----0--------|----0-----------0--------|----------0-----0--------|-------------------------|
     G|-------0-----------0-----|-------0-----------0-----|-------0-----------0-----|-------------------------|
     D|----2-----------------2--|----------2-----------2--|----2-----------------2--|-------------------------|
     A|-0-----------------------|-------------------------|-------------------------|-------------------------|
     E|-------------------------|-------------------------|-0-----------------------|-------------------------|
      |                         |                         |                         |                         |
Bass G|-------------------------|-------------------------|-------------------------|-------------------------|
     D|-------------------------|-------------------4-h5--|-2-----------------------|-------------------------|
     A|-------------------------|-2-----------------------|-------------------------|-------------------------|
     E|-5-----------------------|-------------------------|-------------------------|-------------------------|
 
VoiceE|-------------------------------------------------------------------------------------------------------|
     H|-------------------------------------------------------------------------------------------------------|
     G|--4--4-----4---4-------------------------------------3----3----3--3------------------------------------|
     D|-------------------2--4----5------------------------------------------1-----2-4------------------------|
     A|-------------------------------------------------------------------------------------------------------|
     E| Veter v tvo - ih  volo - sah                       tot zhe chto vechnost' nazad.             ---------|
      |                         |                         |                         |                         |
Gtr.1E|-------------------------|-------------------------|-------------------------|-------------------------|
     H|-------------------------|-------------------------|-------------------------|-------------------------|
     G|-------------------------|-------------------------|-------------------------|-------------------------|
     D|-2-----------------------|-------------------------|-------------------------|-------------------------|
     A|-2-----------------------|-------------------------|-------------------------|-------------------------|
     E|-0-----------------------|-------------------------|-------------------------|-------------------------|
      |                         |                         |                         |                         |
Gtr.4E|-------------0-----------|-2-----------0-----------|-------------0-----------|-2-----------0-----------|
     H|----------0-----0--------|----0-----------0--------|----------0-----0--------|----0-----------0--------|
     G|-------0-----------0-----|-------0-----------0-----|-------0-----------0-----|-------0-----------0-----|
     D|----2-----------------2--|----------2-----------2--|----2-----------------2--|----------2-----------2--|
     A|-------------------------|-------------------------|-3-----------------------|-------------------------|
     E|-0-----------------------|-------------------------|-------------------------|-------------------------|
      |                         |                         |                         |                         |
Bass G|-------------------------|-------------------------|-------------------------|-------------------------|
     D|-------------------------|-------------------------|-------------------------|-------------------------|
     A|-------------------------|----------------------2--|-3-----------------------|-------------------2-h3--|
     E|-0-----------------------|----------------0--3-----|-------------------------|-------------------------|
 
VoiceE|-------------------------------------------------------------------------------------------------------|
     H|-------------------------------------------------------------------------------------------------------|
     G|---2--2---2--2----2--------------------2---------------------------------------------------------------|
     D|------------------------------4-4--5-----------5-----4-2------2----------------------------------------|
     A|-------------------------------------------------------------------------------------------------------|
     E| Vremya  zasty - lo,         luna  i  soln - tze  vstali  v ryad.     ---------------------------------|
      |                         |                         |                         |                         |
Gtr.1E|-------------------------|-------------------------|-------------------------|-------------------------|
     H|-------------------------|-------------------------|-------------------------|-------------------------|
     G|-------------------------|-------------------------|-------------------------|-------------------------|
     D|-------------------------|-------------------------|-2-----------2-----------|-2-----2-----------------|
     A|-------------------------|-------------------------|-2-----------2-----------|-2-----2-----------0h3h4-|
     E|-------------------------|-------------------------|-0--0--0--0--0--0--0--0--|-0-----0---0h2h3h4-------|
      |                         |                         | >  .  .  .  >  .  .  .  | >     >                 |
Gtr.4E|-------------0-----------|-2-----------0-----------|-------------------------|-------------------------|
     H|----------0-----0--------|----0-----------0--------|-------------------------|-------------------------|
     G|-------0-----------0-----|-------0-----------0-----|-------------------------|-------------------------|
     D|----2-----------------2--|----------2-----------2--|-------------------------|-------------------------|
     A|-0-----------------------|-------------------------|-------------------------|-------------------------|
     E|-------------------------|-------------------------|-------------------------|-------------------------|
      |                         |                         |                         |                         |
Bass G|-------------------------|-------------------------|-------------------------|-------------------------|
     D|-------------------------|-------------------4-h5--|-2-----------------------|-------------------------|
     A|-------------------------|-2-----------------------|-------------------------|-------------------------|
     E|-5-----------------------|-------------------------|-------------------------|-------------------------|

(1:20 - 1:34)

BRIDGE:

VoiceE|--------------------------5-----5----------------5----6------------5-5---------------------------------|
     H|-------7-7-7-------8------------------------8------------------------------8--7------------------------|
     G|-------------------------------------------------------------------------------------------------------|
     D|-------------------------------------------------------------------------------------------------------|
     A|-------------------------------------------------------------------------------------------------------|
     E|-----  Uletet'    by    pti - tzey        proch' ot pro    -    klyatoy   zemli - i - i.    -----------|
      |                         |                         |                         |                         |
Gtr.1E|-------------------------|-------------------------|-------------------------|-------------------------|
     H|-------------------------|-7---------7-7p5---------|-------------------------|-5-----------------------|
     G|-------------------------|-7---------------7-7p5---|-------------------------|-5-----------------------|
     D|-------------------------|-7---------------------7-|-8-----------------------|-5-----------------------|
     A|-5-----------------------|-5-----------------------|-5-----------------------|-3-----------------0h3h4-|
     E|-------------------------|-------------------------|-------------------------|-------------2h3h4-------|
      |                         |                         |                         |                         |
Bass G|-------------------------|-------------------------|-------------------------|-------------------------|
     D|-------------------------|--------------sl---------|-------------------------|-------------------------|
     A|-------------7-----5-----|-0-----------5-\x--------|-1-----------------------|-3-----------------------|
     E|-------2-/5--------------|-------------------------|----------------------3--|-------------------------|
 
VoiceE|--------------------------5-------5--------------5---6------------5---5--------5-----------------------|
     H|-------7-7----7-----8-------------------------8-------------------------8------------------------------|
     G|-------------------------------------------------------------------------------------------------------|
     D|-------------------------------------------------------------------------------------------------------|
     A|-------------------------------------------------------------------------------------------------------|
     E|--- S nebom chis - tym  slit' - sya     -    vot o chem          mechtayesh' ty...              -------|
      |                         |                         |                         |                         |
Gtr.1E|-------------------------|-------------------------|-------------------------|-------------------------|
     H|-------------------------|-7---------7-5h7p5---------|-------------------------|-------------------------|
     G|-------------------------|-7---------------7-7p5---|-------5-----------------|-------4-----------------|
     D|-------------------------|-7---------------------7-|-------5-----------------|-------4-----------------|
     A|-5-----------------------|-5-----------------------|-3-----3-----------------|-2-----2-----------------|
     E|-------------------------|-------------------------|-------------------------|-------------------------|
      |                         |                         |                         |                         |
Bass G|-------------------------|-------------------------|-------------------------|-------------------------|
     D|-------------------------|-------4-----2h4p2p0-------|-------------------------|-------------------------|
     A|-------------7-----5-----|-0-----------------5p3p0-|-3-----------------------|-2-----------------------|
     E|-------2-/5--------------|-------------------------|-------------------------|-------------------------|

(1:34 - 2:03)

CHORUS:

VoiceE|-------------------------------------------------------------------------------------------------------|
     H|--------8----7------8----7-------8--7---------5-------------8-7--------8----7------8-----7-------------|
     G|-------------------------------------------------------------------------------------------------------|
     D|-------------------------------------------------------------------------------------------------------|
     A|-------------------------------------------------------------------------------------------------------|
     E|-----  Be - gi,    be - gi      za soln  -  tzem,         sbiva   -   ya   no  -  gi v krov'  ---------|
      |                         |                         |                         |                         |
Gtr.1E|-------------------------|-------------------------|-------------------------|-------------------------|
     H|-------------------------|-------------------------|-------------------------|-------------------------|
     G|-------------------------|-------------------------|-------------------------|-------------------------|
     D|-------------------------|----------5--------------|-------------------------|----------5~~~~~~~-------|
     A|-2-----------------------|-(2)------2--------------|-3-----------------------|-(3)------3~~~~~~~-------|
     E|-0-----------------------|-(0)---0-----------0-----|-0-----------------------|-(0)---0-----------------|
 
VoiceE|----------------------------------------------------------------------------5------5-------------------|
     H|-------8----7-------8----7------8---7--------5-------------7-----7------8----------------8---7---8-----|
     G|-------------------------------------------------------------------------------------------------------|
     D|-------------------------------------------------------------------------------------------------------|
     A|-------------------------------------------------------------------------------------------------------|
     E|----- Be - gi,     be - gi,    ne  boy  -  sya             ig - rat'   sud'bo  -  yu   vnov' i vnov'.  |
      |                         |                         |                         |                         |
Gtr.1E|-------------------------|-------------------------|-------------------------|-------------------------|
     H|-------------------------|-------------------------|-------------------------|-------------------------|
     G|-------------------------|-------------------------|-------------------------|-------------------------|
     D|-2-----------------------|-(2)------5--------------|-4-----------------------|-(4)---------------------|
     A|-0-----------------------|-(0)------0--------------|-2-----------------------|-(2)---------------------|
     E|-------------------------|-------0-----------0-----|-------------------------|-------------3-2-3-5-3-2-|
 
VoiceE|-------------------------------------------------------------------------------------------------------|
     H|--------8----7------8----7-------8--7---------5------------8-7---------8----7---------8-7--------------|
     G|-------------------------------------------------------------------------------------------------------|
     D|-------------------------------------------------------------------------------------------------------|
     A|-------------------------------------------------------------------------------------------------------|
     E|----   Le - ti,    le - ti      za soln  -  tzem        k bezum  -  stvu   vy    -   soty.   ----------|
      |                         |                         |                         |                         |
Gtr.1E|-------------------------|-------------------------|-------------------------|-------------------------|
     H|-------------------------|-------------------------|-------------------------|-------------------------|
     G|-------------------------|-------------------------|-------------------------|-------------------------|
     D|-------------------------|----------5--------------|-------------------------|----------5~~~~~~~-------|
     A|-2-----------------------|-(2)------2--------------|-3-----------------------|-(3)------3~~~~~~~-------|
     E|-0-----------------------|-(0)---0-----------0-----|-0-----------------------|-(0)---0-----------------|
 
VoiceE|-------------------------------------------------------------------------------5----5------------------|
     H|-------8----7-------8----7------8---7--------5-------------7-----7-----8-----------------8---7--8------|
     G|-------------------------------------------------------------------------------------------------------|
     D|-------------------------------------------------------------------------------------------------------|
     A|-------------------------------------------------------------------------------------------------------|
     E|----  Le - ti,     le - ti,    ne  boy  -  sya.           Tak   mo - zhesh'  sde - lat' tol'ko tyyyyyy |
      |                         |                         |                         |                         |
Gtr.1E|-------------------------|-------------------------|-------------------------|-------------------------|
     H|-------------------------|-------------------------|-------------------------|-------------------------|
     G|-------------------------|-------------------------|-------------------------|-------------------------|
     D|-2-----------------------|-(2)------5--------------|-4-----------------------|-(4)---------------------|
     A|-0-----------------------|-(0)------0--------------|-2-----------------------|-(2)---------------------|
     E|-------------------------|-------0-----------0-----|-------------------------|-------------------------|

(2:03 - 2:14)

RIFF 3:
       - yyyyyyyyyyyyyyyyyyyyyyyyyy!
Gtr.1E|-------------------------|-------------------------|-------------------------|-------------------------|
     H|-------------------------|-------------------------|-------------------------|-------------------------|
     G|----3--------------------|-2-----------0-----------|----3--------------------|-2-----------0-----------|
     D|----3--------------------|-2-----------0-----------|----3--------------------|-2-----------0-----------|
     A|----1--------------------|-0-----------x-----------|----1--------------------|-0-----------x-----------|
     E|-0--------------------0--|-------------3-----------|-0--------------------0--|-------------3-----------|
 
Gtr.1E|----3--------------------|-2-----------------------|
     H|----5--------------------|-4-----------------------|
     G|----5--------------------|-4-----------0-----------|
     D|----5--------------------|-4-----------0-----------|
     A|----3--------------------|-2-----------x-----------|
     E|-0--------------------0--|-------------3-----------|

(2:14 - 2:42)

VERSE 2:

       Mu - zhestvo est' lish' u teh,                     kto oschu - til serdtzem strah,
Gtr.1E|-------------------------|-------------------------|-------------------------|-------------------------|
     H|----------R--------------|----------R--------------|----------R--------------|----------R--------------|
     G|----------E--------------|----------E--------------|----------E--------------|----------E--------------|
     D|----------S--------------|----------S--------------|----------S--------------|----------S--------------|
     A|-2--2--2--T--------2--2--|-2--2--2--T--------------|-3--3--3--T--------3--3--|-3--3--3--T--------------|
     E|-0--0--0-----------0--0--|-0--0--0-----------------|-3--3--3-----------3--3--|-3--3--3-----------------|

       kto smotrit v propast',     no smotrit s gordostyu v glazah.
Gtr.1E|-------------------------|-------------------------|-------------------------|-------------------------|
     H|----------R--------------|----------R--------------|----------R--------------|-------------------------|
     G|----------E--------------|----------E--------------|----------E--------------|----3--------2-----0-----|
     D|-2--2--2--S---------2p0--|----------S--------------|----------S--------------|----3--------2-----0-----|
     A|-0--0--0--T---------0----|-2--2--2--T--------------|-2--2--2--T--------------|----1--------0-----x-----|
     E|-------------------------|-2--2--2-----------------|-0--0--0-----------------|-0--------0--------3-----|

       S belym  perom  v  volo - sah,                     slov - no  yazy - cheskiy  bog,
Gtr.1E|-------------------------|-------------------------|-------------------------|-------------------------|
     H|----------R--------------|----------R--------------|----------R--------------|----------R--------------|
     G|----------E--------------|----------E--------------|----------E--------------|----------E--------------|
     D|----------S--------------|----------S--------------|----------S--------------|----------S--------------|
     A|-2--2--2--T--------2--2--|-2--2--2--T--------------|-3--3--3--T--------3--3--|-3--3--3--T--------------|
     E|-0--0--0-----------0--0--|-0--0--0-----------------|-3--3--3-----------3--3--|-3--3--3-----------------|

       ty prygnul v ne - bo,     v gremyaschiy gro - za - mi  po - tok.
Gtr.1E|-------------------------|-------------------------|-------------------------|-------------------------|
     H|----------R--------------|----------R--------------|-------------------------|-------------------------|
     G|----------E--------------|----------E--------------|-------------------------|-------------------------|
     D|-2--2--2--S---------2p0--|----------S--------------|-------------------------|-2-----2-----------------|
     A|-0--0--0--T---------0----|-2--2--2--T--------------|-2-----------2-----------|-2-----2-----------0h3h4-|
     E|-------------------------|-2--2--2-----------------|-0--0--0--0--0--0--0--0--|-0-----0---0h2h3h4-------|
                                                            >  .  .  .  >  .  .  .    >     >
(2:43 - 2:57) BRIDGE

(2:57 - 3:37) CHORUS + RIFF 3

(3:37 - 4:06)

SOLO:

Lead E|-------------------------------------------------|-------------------------------------------------|
     H|--9----------------------------------------------|-(9)~~~~~~~----------------------9---9-----------|
     G|--9----------------------------------------------|-(9)~~~~~~~-----------------------------11---9---|
     D|-------------------------------------------------|-------------------------------------------------|
     A|-------------------------------------------------|-------------------------------------------------|
     E|-------------------------------------------------|-------------------------------------------------|
      |                                                 |                                                 |
Gtr.1E|-------------------------------------------------|-------------------------------------------------|
     H|-------------------------------------------------|-------------------------------------------------|
     G|-------------R-----------------------------------|-------------R-----------------------------------|
     D|-6-----6-----E-----------------------6-----8-----|-6-----6-----E-----------6-----------6-----------|
     A|-4-----4-----S-----------------------4-----6-----|-4-----4-----S-----------4-----------4-----------|
     E|-------------T-----------------------------------|-------------T-----------------------------------|
 
Lead E|-------------------------------------------------|-------------------------------------------------|
     H|-------------------------------------------------|-------------------------------------------------|
     G|-11~~~~~~~~~~~~------9---------------------------|-------------------------------------------------|
     D|-------------------------11--10--9---------------|-------------------------------------------------|
     A|-------------------------------------11--10--9---|-------------------------------------------------|
     E|-------------------------------------------------|-12----9~~~~~~~~~~~~~~~~~~~----------------------|
      |                                                 |                                                 |
Gtr.1E|-------------------------------------------------|-------------------------------------------------|
     H|-------------------------------------------------|-------------------------------------------------|
     G|-------------R-----------------------------------|-------------R-----------------------------------|
     D|-------------E-----------------------------------|-------------E-----------------------------------|
     A|-7-----7-----S-----------------------7-----9-----|-7-----7-----S-----------7-----------7-----------|
     E|-5-----5-----T-----------------------5-----7-----|-5-----5-----T-----------5-----------5-----------|
 
Lead E|-------------------------------------------------|-------------------------------------------------|
     H|-------------------------------------------------|-------------------------------------------------|
     G|-------------------------------------------------|--------------9------9---12---9--12--13--12--13--|
     D|---------------------------------------9------9--|-11---9---11-----11------------------------------|
     A|---------------9------9---11---9---11-----11-----|-------------------------------------------------|
     E|--12---9---12-----12-----------------------------|-------------------------------------------------|
      |                                                 |                                                 |
Gtr.1E|-------------------------------------------------|-------------------------------------------------|
     H|-------------------------------------------------|-------------------------------------------------|
     G|--------------R----------------------------------|-------------R-----------------------------------|
     D|--------------E----------------------------------|-------------E-----------------------------------|
     A|-4-----4------S----------------------4-----6-----|-4-----4-----S-----------4-----------4-----------|
     E|-2-----2------T----------------------2-----4-----|-2-----2-----T-----------2-----------2-----------|
 
Lead E|-------------------------12------12--14------12--|-(12)--14p12p11----------------------------------|
     H|-12------12--14--12--14------14------------------|---------------------12--------------------------|
     G|-----13------------------------------------------|-------------------------13~~~~~~~~~~~~----------|
     D|-------------------------------------------------|-------------------------------------------------|
     A|-------------------------------------------------|-------------------------------------------------|
     E|-------------------------------------------------|-------------------------------------------------|
      |                                                 |                                                 |
Gtr.1E|-------------------------------------------------|-------------------------------------------------|
     H|-------------------------------------------------|-------------------------------------------------|
     G|--------------R----------------------------------|-------------R-----------------------------------|
     D|-6-----6------E----------------------6-----8-----|-------------E-----------------------------------|
     A|-4-----4------S----------------------4-----6-----|-9-----9-----S-----------9-----------9-----------|
     E|--------------T----------------------------------|-7-----7-----T-----------7-----------7-----------|
 
Lead E|---------------------14--14----------------------|---------------------14--14----------------------|
     H|---------14--14--17-------------17p14------------|---------14--14--17-------------17p14------------|
     G|-13--16------------------------------16~~~~~~~~--|-13--16------------------------------16~~~~~~~~--|
     D|-------------------------------------------------|-------------------------------------------------|
     A|-------------------------------------------------|-------------------------------------------------|
     E|-------------------------------------------------|-------------------------------------------------|
      |                                                 |                                                 |
Gtr.1E|-------------------------------------------------|-------------------------------------------------|
     H|-------------------------------------------------|-------------------------------------------------|
     G|-------------R-----------------------------------|-------------R-----------------------------------|
     D|-6-----6-----E-----------------------6-----8-----|-6-----6-----E-----------6-----------6-----------|
     A|-4-----4-----S-----------------------4-----6-----|-4-----4-----S-----------4-----------4-----------|
     E|-------------T-----------------------------------|-------------T-----------------------------------|
 
Lead E|-----------------12--14--15-----14p12------------|-----------------12--14--15-----14p12------------|
     H|---------14--14----------------------14~~~~~~~~--|---------14--14----------------------14~~~~~~~~--|
     G|-13--16------------------------------------------|-13--16------------------------------------------|
     D|-------------------------------------------------|-------------------------------------------------|
     A|-------------------------------------------------|-------------------------------------------------|
     E|-------------------------------------------------|-------------------------------------------------|
      |                                                 |                                                 |
Gtr.1E|-------------------------------------------------|-------------------------------------------------|
     H|-------------------------------------------------|-------------------------------------------------|
     G|-------------R-----------------------------------|-------------R-----------------------------------|
     D|-------------E-----------------------------------|-------------E-----------------------------------|
     A|-7-----7-----S-----------------------7-----9-----|-7-----7-----S-----------7-----------7-----------|
     E|-5-----5-----T-----------------------5-----7-----|-5-----5-----T-----------5-----------5-----------|
 
Lead E|---------14--15--16--19--15--16--19--15--16--19--|-15--16--19--15--16--19--15--16--19--15--16--19--|
     H|-14--17------------------------------------------|-------------------------------------------------|
     G|-------------------------------------------------|-------------------------------------------------|
     D|-------------------------------------------------|-------------------------------------------------|
     A|-------------------------------------------------|-------------------------------------------------|
     E|-------------------------------------------------|-------------------------------------------------|
      |                                                 |                                                 |
Gtr.1E|-------------------------------------------------|-------------------------------------------------|
     H|-------------------------------------------------|-------------------------------------------------|
     G|--------------R----------------------------------|-------------R-----------------------------------|
     D|--------------E----------------------------------|-------------E-----------------------------------|
     A|-4-----4------S----------------------4-----6-----|-4-----4-----S-----------4-----------4-----------|
     E|-2-----2------T----------------------2-----4-----|-2-----2-----T-----------2-----------2-----------|
 
                                                          T           T           T
Lead E|-19bend21------------(19b21)~~~~~~~~~~rel.19-----|-21p15h19p15----21p12h15p12----21p9h12p9----------------|
     H|-------------------------------------------------|-------------------------------------8-----------|
     G|-------------------------------------------------|-------------------------------------------------|
     D|-------------------------------------------------|-------------------------------------------------|
     A|-------------------------------------------------|-------------------------------------------------|
     E|-------------------------------------------------|-------------------------------------------------|
      |                                                 |                                                 |
Gtr.1E|-------------------------------------------------|-------------------------------------------------|
     H|-------------------------------------------------|-------------------------------------------------|
     G|--------------R----------------------------------|-------------R-----------------------------------|
     D|-6-----6------E----------------------6-----8-----|-------------E-----------------------------------|
     A|-4-----4------S----------------------4-----6-----|-9-----9-----S-----------9-----------9-----------|
     E|--------------T----------------------------------|-7-----7-----T-----------7-----------7-----------|

(4:06 - 4:20)

BRIDGE 1:

VoiceE|-------------------5--5-----------------------------------------------------|
     H|--------7-7-7---7------------------8-7--8-----7------5-5-5------------------|
     G|----------------------------------------------------------------------------|
     D|-------Ty upal so stonom,          opalyon - nyy    vysotoy ----------------|
     A|----------------------------------------------------------------------------|
     E|----------------------------------------------------------------------------|
      |                  |                   |                  |                  |
Lead E|------------------|-------------------|------------------|------------------|
     H|-\7---------------|-/10---------------|-\8---------------|------------------|
     G|------------------|-------------------|------------------|------------------|
     D|------------------|-------------------|------------------|------------------|
     A|------------------|-------------------|------------------|------------------|
     E|------------------|-------------------|------------------|------------------|
      |                  |                   |                  |                  |
Gtr.4E|--2- D -----------|-------------------|-0- Am7 ----------|------------------|
cleanH|--3---------------|-------------------|-1----------------|------------------|
     G|--2---------------|-------------------|-0----------------|------------------|
     D|--0---------------|-------------------|-2----------------|------------------|
     A|------------------|-------------------|-0----------------|------------------|
     E|------------------|-------------------|------------------|------------------|
 
VoiceE|----------------------5--5----------3-5--6---5-----3--------5---------------|
     H|--------7--7--7--7--------------------------------------7-------------------|
     G|----------------------------------------------------------------------------|
     D|-------Na zemle rozhdyonnyy       snova dolzhen  stat' zemlyoy -------------|
     A|----------------------------------------------------------------------------|
     E|----------------------------------------------------------------------------|
      |                  |                   |                  |                  |
Gtr.1E|------------------|-------------------|------------------|------------------|
     H|------------------|-------------------|------------------|------------------|
     G|------------------|-------------------|------5-----------|------4-----------|
     D|------------------|-------------------|------5-----------|------4-----------|
     A|------------------|-------------------|--3---3-----------|--2---2-----------|
     E|------------------|-------------------|------------------|------------------|
      |                  |                   |                  |                  |
Gtr.4E|--2---------------|-------------------|------------------|------------------|
     H|--3---------------|-------------------|------------------|------------------|
     G|--2---------------|-------------------|------------------|------------------|
     D|--0---------------|-------------------|------------------|------------------|
     A|------------------|-------------------|------------------|------------------|
     E|------------------|-------------------|------------------|------------------|

Repeat CHORUS 3 times:

 (4:21 - 4:49) first time with only drums,

 (4:50 - 5:18) second time as usual,

 and then (5:18 - 5:47)

   third time : (Gtr.2 joins; gtr.1 plays as before):

            Begi,    begi     za solntzem,       sbiva - ya  no - gi v krov'       
Gtr.2E|------------------|------------------|------------------|------------------|
     H|------------------|--------13\\\\\8--|-/11--------------|-(11)---12\\\\\8--|
     G|(4)/9-------------|----------gliss---|------------------|----------gliss---|
     D|------------------|------------------|------------------|------------------|
     A|------------------|------------------|------------------|------------------|
     E|-- E5 ------------|------------------|- C5 -------------|------------------|

            Begi,    begi,    ne  boysya           igrat' sud'bo - yu  vnov'i vnov'
Gtr.2E|------------------|------------------|------------------|------------------|
     H|-10---------------|-(10)---------\8--|-/12--------------|------------------|
     G|------------------|------------------|------------------|---------------4/-|
     D|------------------|------------------|------------------|------------------|
     A|------------------|------------------|------------------|------------------|
     E|- A5 -------------|------------------|- H5 -------------|------------------|

            Leti,    leti     za solntzem       k bezumstvu  vy  -  soty
Gtr.2E|------------------|------------------|------------------|------------------|
     H|------------------|-------/18\\\\\8--|-/11--------------|-(11)--/17\\\\\8--|
     G|-/9---------------|----------gliss---|------------------|----------gliss---|
     D|------------------|------------------|------------------|------------------|
     A|------------------|------------------|------------------|------------------|
     E|- E5 -------------|------------------|- C5 -------------|------------------|

            Leti,    leti,    ne  boysya.         Tak mozhesh' sdelat' tol'ko ty -
Gtr.2E|------------------|------------------|------------------|------------------|
     H|-/10--------------|-(10)---------\8--|-/12--------------|-(12)-------------|
     G|------------------|------------------|------------------|------------------|
     D|------------------|------------------|------------------|------------------|
     A|------------------|------------------|------------------|------------------|
     E|- A5 -------------|------------------|- H5 -------------|------------------|

(5:47 - 6:08)

OUTRO:

      - yyyyyy!
Gtr.1E|------------------|------------------|------------------|------------------|
     H|------------------|------------------|------------------|------------------|
     G|----3-------------|-2-------0--------|---3--------------|-2-------0--------|
     D|----3-------------|-2-------0--------|---3--------------|-2-------0--------|
     A|----1-------------|-0-------x--------|---1--------------|-0-------x--------|
     E|--0-------------0-|---------3--------|-0--------------0-|---------3--------|


Gtr.1E|----3-------------|-2-------  ritenuto    --------------|------------------|
     H|----5-------------|-4----------------|------------------|------------------|
     G|----5-------------|-4-------0--------|------------------|------------------|
     D|----5-------------|-4-------0--------|-2----------------|------------------|
     A|----3-------------|-2-------x--------|-2----------------|------------------|
     E|--0-------------0-|---------3--------|-0----------------|------------------|






              БЕГИ ЗА СОЛHЦЕМ
            ------------------
            (Дубинин/Пушкинa)
           (c) 1999 RU.MUSIC.ARIA

1||----------0--------2--------0-------|----------0--------2--------0-------|
2||-------0----0--------0--------0-----|-------0----0--------0--------0-----|
3||-----0--------0--------0--------0---|-----0--------0--------0--------0---|
4||----------------2--------2--------2-|----------------2--------2--------2-|
5||------------------------------------|------------------------------------|
6||--0----------------0--------0-------|--0----------------0--------0-------|

  Em
В воздухе пaхнет бедой
C7
Целых две тысячи лет,
 Am
Жизнь тaк жестокa
B7                 Em
Ha этой проклятой земле...


Ветер в твоих волосaх
C7
Тот же, что вечность нaзaд,
Am
Время зaстыло,
B7            Em
Лунa и солнце стaли в ряд...

Припев:
   D                           C7
   Улететь бы птицей, прочь от проклятой земли,
   C                              C7           B7
   С небом чистым слиться - вот о чем мечтaешь ты...

   Em
   Беги, беги зa солнцем,
   C
   Сбивaя ноги в кровь
   Am7
   Беги, беги, не бойся
   B7
   Игрaть судьбою вновь и вновь.
   Em
   Лети, лети зa солнцем
   C
   K безумству высоты.
   Am
   Лети, лети, не бойся,
   B7                        Em/Bb  Em/A  Em/G
   Тaк можешь сделaть только ты...


Мужество есть лишь у тех,
Kто ощутил сердцем стрaх
Kто смотрит в пропaсть,
Hо смотрит с гордостью в глaзaх


С белым пером в волосaх,
Словно языческий бог,
Ты прыгнул в небо,
В гремящий грозaми поток.

Припев.

D                     C/A
Ты упaл со стоном, опaленный высотой,
D                         C7              B7
Ha земле рожденный, сновa должен стaть землей...

Припев.

 






                       


Copyright © Музыкальный Портал на Куличках 1999-2007      music@kulichki.com


    Stolica.ru    
Реклама в Интернет