Stolica.ru     

:
A B C D E F G H I J K L M N O P Q R S T U V W X Y Z





:     A B C D E F G H I J K L M N O P Q R S T U V W X Y Z #






-->




  
                      
                     ---------------
tabbed by Vladimir Gelfand ("Little Prince")

Tempo: slow (69 bpm)

(0:01 - 0:13)

INTRO:

RIFF 1:

Gtr.1E|---------------------------------|---------------------------------|
     H|---------------------------------|---------------------------------|
     G|---------------------------------|---------------------------------|
     D|---------------------------------|------------------------12b13----|
     A|---------------------------------|---------------------------------|
     E|---------------------------------|---------------------------------|
      |                                 |                                 |
Gtr.2E|---------------------------------|---------------------------------|
     H|-------------------------------0-|---------------------------------|
     G|---------2-R-----------------0---|---------2-R---------------------|
     D|---------2-E---1---------0h2-----|---------2-E---1-----------------|
     A|-0---------S---0-----------------|-0---------S---0-----------------|
     E|-----------T---------------------|-.---------T---------------------|
 
Gtr. E|---------------------------------|---------------------------------|
     H|---------------------------------|---------------------------------|
     G|---------------------------------|---------------------------------|
     D|-12p10----------------------9----|-10~~~~~~~~~~~~~~~~~~------------|
     A|-------12---------------/12---12-|---------------------------------|
     E|---------------------------------|---------------------------------|
      |                                 |                                 |
Gtr.2E|---------------------------------|---------------------------------|
     H|-------------------------------0-|---------------------------------|
     G|---------2-R-----------------0---|---------2-R---------------------|
     D|---------2-E---1---------0h2-----|---------2-E---1-----------------|
     A|-0---------S---0-----------------|-0---------S---0-----------------|
     E|-----------T---------------------|-.---------T---------------------|

(0:14 - 0:56)

VERSE 1: (Gtr.2 keeps playing RIFF 1)

VoiceE|---------------------------------|---------------------------------|
     H|---5-----------------------------|---------------------------------|
     G|-------------7--5--7----------4-5-------5--5------5--4---------4---|
     D|----------------------------7----|---------------------------7-----|
     A|---------------------------------|---------------------------------|
     E|- Dozhd'    za  oknom      nadoyel     davnym    davno,      i u - |

VoiceE|---------------------------------|---------------------------------|
     H|---------------------------------|---------------------------------|
     G|--5----5-----5-5--4--------------|---------------------------------|
     D|-----------------------7-----7--5--7-------------------------------|
     A|---------------------------------|--------7----6--3--0-------------|
     E| vi - det' bliki solntza   mne ne suzh - de - no -o -o. -----------|

VoiceE|---------------------------------|---------------------------------|
     H|---5-----------------------------|---------------------------------|
     G|-------------7--5--7------------4-5-5------5-----5----4---------4--|
     D|----------------------------7----|----------------------------7----|
     A|---------------------------------|---------------------------------|
     E|- Ty       slovno ten'     rastvorilas' v tem - no - te,      alyy |

VoiceE|---------------------------------|---------------------------------|
     H|---------------------------------|---------------------------------|
     G|---5----5--5---5---4-----------------------------------------------|
     D|---------------------7----7-----5-7-----------------------7--7---5-|
     A|--------------------------------------7-----6--3--0----------------|
     E| sharf zastyl na stule,  kak vcherashniy   de -e -en'.   Ya vyklyu-|
 
VoiceE|---------------------------------|---------------------------------|
     H|-------------------------------5-----5----5------------------------|
     G|--------5------------------------|-------------7-5-----------------|
     D|---7-----------------------------|-------------------7-----7--7---5|
     A|---------------------------------|---------------------------------|
     E| cha - yu                   v kom - na - tah  svee - et, mne ne hva|
      |                                 |                                 |
Bass G|---------------------------------|-----5-----5-----5-----5-----5---|
     D|---------------------------------|---5-----5-----5-----5-----5-----|
     A|---------------------------------|-3-----3-----3-----3-----3-------|
     E|---------------------------------|---------------------------------|
 
VoiceE|---------------------------------|---------------------------------|
     H|-------------------------------5-----5----5------------------------|
     G|--------5------------------------|-------------7-5-------------5---|
     D|---7-----------------------------|------------------8--------------|
     A|---------------------------------|---------------------------------|
     E| ta - yet                     lish' si - ga - ree - et.        Ih  |
      |                                 |                                 |
Bass G|---------------------------------|-----5-----4-----3---------------|
     D|---------------------------------|---5-----4-----3-----------------|
     A|---------------------------------|-3-----2-----1-------------------|
     E|---------------------------------|---------------------------------|

(0:56 - 1:10)

Small Solo 1:

VoiceE|---------------------------------------------------------------------------------------------------|
     H|---------------------------------------------------------------------------------------------------|
     G|---------------------------------------------------------------------------------------------------|
     D|--7------------------------------------------------------------------------------------------------|
     A|---------------------------------------------------------------------------------------------------|
     E| net....   ----------------------------------------------------------------------------------------|
      |                                                 |                                                 |
Gtr.1E|-------------------------------------------------|-------------------------------------------------|
     H|-12bend13----12bend13----12bend13----12bend13----|-12b13r12p10---------12b13-12b13r12p10---------------|
     G|-------------------------------------------------|-------------------------------------------------|
     D|-------------------------------------------------|-------------------------------------------------|
     A|-------------------------------------------------|-------------------------------------------------|
     E|-------------------------------------------------|-------------------------------------------------|
      |                                                 |                                                 |
Bass G|-------------5-----------------------------------|-------------5-----------------------------5-----|
     D|----------------7-----5--------------------------|----------------7-----5-----------------2--------|
     A|-0-----5--7-----------------5--7--0--3--5--2--3--|-0-----5--7-----------------------2--3-----------|
     E|-------------------------------------------------|-------------------------------------------------|
 
Gtr.1E|-------------------------------------------------|-------------------------------------------------|
     H|-------------------------------------------------|-------------------------------------------------|
     G|-------------------------------------------------|-------------------------------------------------|
     D|-12bend13----12bend13----12bend13----12b13~~~~~~-|-12p10-------------12b13-12p10-------------------|
     A|-------------------------------------------------|-------12----------------------12----------------|
     E|-------------------------------------------------|-------------------------------------------------|
      |                                                 |                                                 |
Bass G|-------------5-----------------------------------|-------------5-----------------------------5-----|
     D|----------------7-----5--------------------------|----------------7-----5-----------------2--------|
     A|-0-----5--7-----------------5--7--0--3--5--2--3--|-0-----5--7-----------------------2--3-----------|
     E|-------------------------------------------------|-------------------------------------------------|

(1:10 - 1:52)

VERSE 2: (Gtr.2 keeps playing as in RIFF 1)

        Ya     zhdu,  kogda      noch' zavesit chyornym dal',      i  os -
Bass G|---------5-----------------------|---------5-------------------5---|
     D|-----------7---5-----------------|-----------7---5-----------2-----|
     A|-0---5-7-----------5-7-0-3-5-2-3-|-0---5-7---------------2-3-------|
     E|---------------------------------|---------------------------------|

       tatki slyoz   nebesnyh    stanut  kor - koy   l'da. 
Bass G|---------5-----------------------|---------5-------------------5---|
     D|-----------7---5-----------------|-----------7---5-----------2-----|
     A|-0---5-7-----------5-7-0-3-5-2-3-|-0---5-7---------------2-3-------|
     E|---------------------------------|---------------------------------|
        Mne       vsyo ravno,      ploho li tebe   odnoy,         ty ho - 
Bass G|---------5-----------------------|---------5-------------------5---|
     D|-----------7---5-----------------|-----------7---5-----------2-----|
     A|-0---5-7-----------5-7-0-3-5-2-3-|-0---5-7---------------2-3-------|
     E|---------------------------------|---------------------------------|

        tela  peremen i serdtzem, i dusho - oy.                Ya vyklyu -
Bass G|---------5-----------------------|---------5-------------------5---|
     D|-----------7---5-----------------|-----------7---5-----------2-----|
     A|-0---5-7-----------5-7-0-3-5-2-3-|-0---5-7---------------2-3-------|
     E|---------------------------------|---------------------------------|

        cha - yu                   v kom - na - tah  svee - et, mne ne hva-
Bass G|---------5-7---5---------5-7-5---|-----5-----5-----5-----5-----5---|
     D|-----5-7-------------5-7---------|---5-----5-----5-----5-----5-----|
     A|-0-----------------7-------------|-3-----3-----3-----3-----3-------|
     E|---------------------------------|---------------------------------|

       ta - yet                     lish' si - ga - ret.       Beskonechna
Bass G|---------5-7---5---------5-7-5---|-----5-----4-----3---------------|
     D|-----5-7-------------5-7---------|---5-----4-----3-----------------|
     A|-0-----------------7-------------|-3-----2-----1-------------------|
     E|---------------------------------|---------------------------------|

(1:52 - 2:20)

CHORUS:

VoiceE|---------------------------------------------------------------------------------------------------|
     H|---------------------------------------------------------------------------------------------------|
     G|---------------------------------------------------------------------------------------------------|
     D|--7--7-------7-------5-7-------------7--7-7----5---7---7-------7-----5-----------------7--7-7---5--|
     A|--------------------------------------------------------------------------6------------------------|
     E| pytka      ti  -  shinoy,          tishina  sme - etsya      nad   to - boy,         zastyva - et |
      |                                                 |                                                 |
Gtr.2E|-------------------------------------------------|-------------------------------------------------|
     H|-------------------------------------------------|-------------------------------------------------|
     G|-------------------------------------------------|-------------4--------------4--------4-----4-----|
     D|-------------7--------------7--------7-----7-----|-------------4--------------4--------4-----4-----|
     A|-------------7--------------7--------7-----7-----|-0--2--2--2--2-----------2--2-----2--2-----2-----|
     E|-4--5--5--5--5-----------5--5-----5--5-----5-----|-------------------------------------------------|
 
VoiceE|---------------------------------------------------------------------------------------------------|
     H|---------------------------------------------------------------------------------------------------|
     G|-----------------------------------------------4--5------4-------4---------------------------------|
     D|---7--7------7-----5----7------------7---7-7-------------------7-----6----------------7---7--7--5--|
     A|---------------------------------------------------------------------------------------------------|
     E| vremya     na   ste - ne,           u chasov pecha  -  li  strelok ne  -  et.       Noch' za nochyu,|
      |                                                 |                                                 |
Gtr.2E|-------------------------------------------------|-------------------------------------------------|
     H|-------------------------------------------------|-------------------------------------------------|
     G|-------------5--------------5--------5-----5-----|-7-----------------------------------------------|
     D|-------------5--------------5--------5-----5-----|-7-----------------------------------------------|
     A|-2--3--3--3--3-----------3--3-----3--3-----3-----|-5-----------------------------------------------|
     E|-------------------------------------------------|-------------8--7--5--4--------------------------|
 
VoiceE|---------------------------------------------------------------------------------------------------|
     H|---------------------------------------------------------------------------------------------------|
     G|---------------------------------------------------------------------------------------------------|
     D|--7----7-----7-----5----7------------7----7-7----5-7--7--------7-----5-----------------7---7-7--5--|
     A|--------------------------------------------------------------------------6------------------------|
     E| den' za  dnyom    o - din,         sam  sebe  sluga  i       gos - po - din,          a  goda  u- |
      |                                                 |                                                 |
Gtr.2E|-------------------------------------------------|-------------------------------------------------|
     H|-------------------------------------------------|-------------------------------------------------|
     G|-------------------------------------------------|-------------4--------------4--------4-----4-----|
     D|-------------7--------------7--------7-----7-----|-------------4--------------4--------4-----4-----|
     A|-------------7--------------7--------7-----7-----|-0--2--2--2--2-----------2--2-----2--2-----2-----|
     E|-4--5--5--5--5-----------5--5-----5--5-----5-----|-------------------------------------------------|
 
VoiceE|---------------------------------------------------------------------------------------------------|
     H|---------------------------------------------------------------------------------------------------|
     G|------------------------------------------------4--5--4--------------------5--4-----------------5--|
     D|--7--7-------7------5-7--------------7--7--7--------------7-------------2---------6----------------|
     A|---------------------------------------------------------------------------------------------------|
     E| hodyat   v ni  -  kuda.             Tak techet v podzemnyy mir,          podzemnyy mir           vo- |
      |                                                 |                                                 |
Gtr.2E|-------------------------------------------------|-------------------------------------------------|
     H|-------------------------------------------------|-------------------------------------------------|
     G|-------------5--------------5--------5-----5-----|-7--7--R-----------------------R-----------------|
     D|-------------5--------------5--------5-----5-----|-7--7--E-----------------6--6--E-----------------|
     A|-2--3--3--3--3-----------3--3-----3--3-----3-----|-5--5--S-----------------6--6--S-----------------|
     E|-------------------------------------------------|-------T-----------------4--4--T-----------------|

(2:20 - 2:33)

Small Solo 2:

VoiceE|---------------------------------------------------------------------------------------------------|
     H|---------------------------------------------------------------------------------------------------|
     G|---------------------------------------------------------------------------------------------------|
     D|--7------------------------------------------------------------------------------------------------|
     A|---------------------------------------------------------------------------------------------------|
     E| da.....   ----------------------------------------------------------------------------------------|
      |                                                 |                                                 |
Gtr.1E|------/8-----5~~~~~~~~~~~~~~---------------------|-------------------------A.H. (?) ---------------|
     H|-------------------------------------------------|-------------------------------------------------|
     G|----------------------------------7-b8r7p5-------|-------5b7--------------<5>~~~~------------------|
     D|-------------------------------------------7~~~~~|(7)~~--------7~~~~~~~----------------------------|
     A|-------------------------------------------------|----------------------------------------3--------|
     E|-------------------------------------------------|-------------------------------------------------|
      |                                                 |                                                 |
Bass G|-------------5-----------------------------------|-------------5-----------------------------5-----|
     D|----------------7-----5--------------------------|----------------7-----5-----------------2--------|
     A|-0-----5--7-----------------5--7--0--3--5--2--3--|-0-----5--7-----------------------2--3-----------|
     E|-------------------------------------------------|-------------------------------------------------|
 
Gtr.1E|---------------------------------------sl.-------|-----15------15------15------14------------------|
     H|-------------------------------------8---/17-----|(17)-----17------16------15------15--------------|
     G|-------------------------5-/7--8--9--------------|-------------------------------------17~~~~~~----|
     D|-------------------5--7--------------------------|-------------------------------------------------|
     A|-------3-/5--6--7--------------------------------|-------------------------------------------------|
     E|-3--5--------------------------------------------|-------------------------------------------------|
      |                                                 |                                                 |
Bass G|-------------5-----------------------------------|-------------5-----------------8-8-8-8-7-7-7-7-5-5-5---|
     D|----------------7-----5--------------------------|----------------7-----5--------------------------|
     A|-0-----5--7-----------------5--7--0--3--5--2--3--|-0-----5--7--------------------------------------|
     E|-------------------------------------------------|-------------------------------------------------|

(2:34 - 3:16) VERSE 3

(3:16 - 3:43) CHORUS

(3:43 - 4:11)

RIFF 2: (*2 times) (Gtr.3 - clean with some effect processor)

Gtr.3E||-------------------------------------------------|-------------------------------------------------|
     H||-------------------------------------------------|-------------0-----------------------0-----------|
     G||-------------0--------0--------------0-----------|-------0--------0-----0--------0--------0--------|
     D||----------4-----4-----------------4-----4--------|----4-----4--------4--------4-----4--------4-----|
     A||-------7-----------7-----------7-----------7-----|-------------------------------------------------|
     E||----0-----------------------0--------------------|-------------------------------------------------|
      ||                                                 |                                                 |
Bass G||-------------------------------------------------|-------------------------------------------------|
     D||-------------------------------------------------|-------------------------------------------------|
     A||-------------------------------------------------|-------------------------------------------------|
     E||(0)-------------------0-----------------------6--|(6)-------------------6-----------------------2--|
 
Gtr.3E|--------------------------------------------------|-------------------------------------------------||
     H|--------------0-----------------------0-----------|-------------------------------------------------||
     G|-----------3-----3-----0-----------3-----3--------|-------------0--------0--------------------------||
     D|--------2-----------2-----------2-----------2-----|----------4-----4--------------------------------||
     A|-----1-----------------------1--------------------|-------7-----------7-----------------------------||
     E|--------------------------------------------------|----0--------------------------------------------||
      |                                                  |                                                 ||
Bass G|--------------------------------------------------|-------------------------------------------R-----||
     D|--------------------------------------------------|-------------------------------------------E-----||
     A|--------------------------------------------------|-------------------------------------------S-----||
     E|-(2)-------------------2-----------------------0--|(0)-------------------0--------------6--6--T--0--||
      |                                                  |                                                 ||
Gtr.2E|--------------------------------------------------|-------------------------------------------------||
     H|--------------------------------------------------|-------------------------------------------------||
     G|--------------------------------------------------|-------------------------------------------R-----||
     D|--------------------------------------------------|-------------------------------------8--8--E-----||
     A|--------------------------------------------------|-------------------------------------8--8--S-----||
     E|--------------------------------------------------|-------------------------------------6--6--T-----||

(4:11 - 5:07)

MAIN SOLO:

PART A:

Gtr.1E|-- bends either 1/4 or 1/2 -----------------------|-------------------------------------------------|
     H|--------------------------------------------------|-15^~~~~~~~~~~~~~--------18b19~~~~~~~~~~~~~------|
     G|--14-^--------------------14^~~~~~~~~~~~~~~-------|-------------------------------------------------| 
     D|--------------------------------------------------|-------------------------------------------------|
     A|--------------------------------------------------|-------------------------------------------------|
     E|--------------------------------------------------|-------------------------------------------------|
      |                                                  |                                                 |
Bass G|--------------------------------------------------|-------------------------------------------------|
     D|--------9-----9-----9-----------9-----9-----9-----|-------8-----8-----8-----------8-----8-----8-----|
     A|-----7-----7-----7-----------7-----7-----7--------|----7-----7-----7-----------7-----7-----7--------|
     E|-(0)-------------------0-----------------------6--|(6)-------------------6-----------------------2--|
 
Gtr.1E|-19^~~~~~~~~~~~- press----14b15~~~~~~~~~~~~~~~----|--------------------------15~~~~~~~~~~~~~~~~~----|
     H|--------------- tremolo --------------------------|-15^--15^--15^--15^--17--------------------------|
     G|----------------- bar ----------------------------|-------------------------------------------------| 
     D|--------------------------------------------------|-------------------------------------------------|
     A|--------------------------------------------------|-------------------------------------------------|
     E|--------------------------------------------------|-------------------------------------------------|
      |                                                  |                                                 |
Bass G|--------3-----3-----3-----------3-----3-----3-----|-------------------------------------------R-----|
     D|-----4-----4-----4-----------4-----4-----4--------|-------9-----9-----9-----------8-----------E-----|
     A|--------------------------------------------------|----7-----7-----7-----------7--------------S-----|
     E|-(2)-------------------2-----------------------0--|(0)-------------------0--------------6--6--T--0--|

PART B: (very fast)

       T  T   T  T   T  T   T  T   T  T   T  T   T  T  T  T   T  T   T  T   T  T   T  T
Gtr.1E|-15p12------15p12------15p12------15p12------15p12------15p12------15p12------15p12------15p12------15p12------15p12------15p12-----|
     H|------15p12------15p12------15p12------15p12------15p12------15p12------15p12------15p12------15p12------15p12------15p12------15p12|
     G|----------------------------------------------------------------------------------|
     D|----------------------------------------------------------------------------------|
     A|----------------------------------------------------------------------------------|
     E|----------------------------------------------------------------------------------|
      |                                                                                  |
Bass G|----------------------------------------------------------------------------------|
     D|------------9---------9---------9-------------------9---------9---------9---------|
     A|-------7---------7---------7-------------------7---------7---------7--------------|
     E|-(0)---------------------------------0---------------------------------------6----|
 
       T  T   T  T   T  T   T  T   T  T   T  T   T  T   T  T   T  T  T  T   T  T   T  T
Gtr.1E|-16p11------16p11------16p11------16p11------16p11------16p11------16p11------16p11------16p11------16p11------16p11------16p11-----|
     H|------15p11------15p11------15p11------15p11------15p11------15p11------15p11------15p11------15p11------15p11------15p11------15p11|
     G|----------------------------------------------------------------------------------|
     D|----------------------------------------------------------------------------------|
     A|----------------------------------------------------------------------------------|
     E|----------------------------------------------------------------------------------|
      |                                                                                  |
Bass G|----------------------------------------------------------------------------------|
     D|------------8---------8---------8-------------------8---------8---------8---------|
     A|-------7---------7---------7-------------------7---------7---------7--------------|
     E|-(6)---------------------------------6---------------------------------------2----|
 
        T  T   T  T   T  T  T   T  T  T   T  T   T  T   T  T  
Gtr.1E|-18p14------18p14------18p14------18p14------18p14------18p14------18p14------18p14-----------------------------------|
     H|------17p14------17p14------17p14------17p14------17p14------17p14------17p14------17p14------------.....-------------|
     G|--------------------------------------------------------------- tremolo bar (?) --|
     D|----------------------------------------------------------------------------------|
     A|----------------------------------------------------------------------------------|
     E|----------------------------------------------------------------------------------|
      |                                                                                  |
Bass G|------------3---------3---------3-------------------3---------3---------3---------|
     D|-------4---------4---------4-------------------4---------4---------4--------------|
     A|----------------------------------------------------------------------------------|
     E|-(2)---------------------------------2---------------------------------------0----|
 
        T  T   T   T   T   T   T  T   T    T   T   T   T
Gtr.1E|-17p15-17p15-17p12-17p12-17p12----------------------------------------------------------------------------|
     H|--------------------------------17p15-17p15-17p12-17p12---------------------------------------------------|
     G|----------------------------------------------------------16p14-16p14-16p14-16p14p12h14--???--<12>-\\\\- press ----|
     D|-------------------------------------------------------------------- tremolo bar -|
     A|----------------------------------------------------------------------------------|
     E|----------------------------------------------------------------------------------|
      |                                                                                  |
Bass G|----------------------------------------------------------------------------------|
     D|------------9---------9---------9-------------------------------------------------|
     A|-------7---------7---------7--------------------???-------------------------------|
     E|-(0)---------------------------------0--------------------------------------------|

PART C:

Gtr.1E|-------------------------------------------------|-------------------------------------------8--9--|
Gtr.2H|----------------------7--------------------------|----------------------------------------x--10-11-|
     G|-------------9~~~~-------------------------------|--------7b9rel7----------------------------------|
     D|-/7----------------------------------------9--7--|-5-----------------5~~~~~~~~~~~------------------|
     A|-------------------------------------------------|-------------------------------------------------|
     E|-------------------------------------------------|-------------------------------------------------|
      |                                                 |                                                 |
Bass G|-------------5--7-----5--------------5--7--5-----|-------5--------5--------5--------5--------5-----|
     D|-------5--7--------------------5--7--------------|----5--------5--------5--------5--------5--------|
     A|-0--------------------------7--------------------|-3--------3--------3--------3--------3-----------|
     E|-------------------------------------------------|-------------------------------------------------|
 
Gtr.1E|-10----------13-------14~~~~~~~------------14-14-|-15\-sl---12-------12----12----------------12-13-|
Gtr.2H|-12----------15-------15~~~~~~~------------15-15-|-17\------13-------13----13----------------13-14-|
     G|-------------------------------------------------|-------------------------------------------------|
     D|-------------------------------------------------|-------------------------------------------------|
     A|-------------------------------------------------|-------------------------------------------------|
     E|-------------------------------------------------|-------------------------------------------------|
      |                                                 |                                                 |
Bass G|-------------5--7-----5--------------5--7--5-----|-------5--------4--------3-----------------------|
     D|-------5--7--------------------5--7--------------|----5--------4--------3--------------------------|
     A|-0--------------------------7--------------------|-3--------2--------1-----------------------------|
     E|-------------------------------------------------|-------------------------------------------------|
 
Gtr.1E|-14----------14-------14-17-14-14-17-14-14-17-14-|-14-17-14-14-19-17-14-19-17-14-19-17-14-19-17-19-|
Gtr.2H|-15----------15-------15-19-15-15-19-15-15-19-15-|-15-19-15-15-20-19-15-20-19-15-20-19-15-20-19-20-|
     G|-------------------------------------------------|-------------------------------------------------|
     D|-------------------------------------------------|-------------------------------------------------|
     A|-------------------------------------------------|-------------------------------------------------|
     E|-------------------------------------------------|-------------------------------------------------|
      |                                                 |                                                 |
Bass G|-------------5--7-----5--------------5--7--5-----|-------5--------5--------5--------5--------5-----|
     D|-------5--7--------------------5--7--------------|----5--------5--------5--------5--------5--------|
     A|-0--------------------------7--------------------|-3--------3--------3--------3--------3-----------|
     E|-------------------------------------------------|-------------------------------------------------|
 
                                                                                          Beskonechna
Gtr.1E|-20----20----20-19p17-19-20----20----20~~~~~~~~----20b22----20b22----20b22-20b22----------------------|
Gtr.2H|-22----22----22-20p19-20-22----22----22~~~~~~~~----22b24----22b24----22b24-22b24----------------------|
     G|-------------------------------------------------|-------------------------------------------------|
     D|-------------------------------------------------|-------------------------------------------------|
     A|-------------------------------------------------|-------------------------------------------------|
     E|-------------------------------------------------|-------------------------------------------------|
      |                                                 |                                                 |
Bass G|-------------5--7-----5--------------5--7--5-----|-------5--------4--------3-----------------------|
     D|-------5--7--------------------5--7--------------|----5--------4--------3--------------------------|
     A|-0--------------------------7--------------------|-3--------2--------1-----------------------------|
     E|-------------------------------------------------|-------------------------------------------------|

(5:07 - 5:34) CHORUS

(5:34 - 5:48) OUTRO

                      
                     ---------------
        :   aka TheXaM (2:5020/1619.404@FidoNet)

h - hammer on
p - pull off
s - slide
let ring -    ( )
/ - pitch bend to
r - return ()

:

e-----------------------------------------
B-----------------------------------------
G-----------------------------------------
D------7----5-------5h7------7----5-------
A------7----7----5h7---------7----7-------
E-5---------------------5-----------------
   ^let ring             ^let ring

 1 ( ): Distorted Guitar

e-----------------------------------------
B-----------------------------------------
G-7/8r7--7--5----------------------5s0----
D--------------7s5-----5--7--5--7---------
A-----------------------------------------
E-----------------------------------------

 2: Distorted Guitar
e-----------------------
B-----------------------
G-9s14-14-14---s0-------
D-----------------------
A-----------------------
E-----------------------
           ^^ Vibrato

 3: Distorted Guitar
e-----------------------------------------
B----------------5--5--5------------------
G-------------5-----------7--5------------
D-5--7--5--7--------------------7---------
A-----------------------------------------
E-----------------------------------------
                  ^^^^^^^  pitch bend

e-----------------------------------------
B----------------5--5--5------------------
G-------------5-----------7--5------------
D-5--7--5--7--------------------8---------
A-----------------------------------------
E-----------------------------------------
                  ^^^^^^^  pitch bend

 4: Distorted Guitar
e----------------------------------------------------------------
B-12/13--12/13--12/13--12/13--13--12--10--12/13r12--13--12--10s4-
G----------------------------------------------------------------
D----------------------------------------------------------------
A----------------------------------------------------------------
E----------------------------------------------------------------

e----------------------------------------------------------------
B-4--4--4--4--3--1--------4--3--1--------------------------------
G-------------------2--------------2-----------------------------
D----------------------------------------------------------------
A----------------------------------------------------------------
E----------------------------------------------------------------
   .  .  .  . Vibrato     .
         ---------    
   -------------------------  pitch bend

   ..... ;)
 






                       


Copyright © 1999-2007      music@kulichki.com


    Stolica.ru